  0
SECTION
  2
HEADER
  9
$ACADVER
  1
AC1015
  9
$ACADMAINTVER
 70
     6
  9
$DWGCODEPAGE
  3
ANSI_1254
  9
$INSBASE
 10
0.0
 20
0.0
 30
0.0
  9
$EXTMIN
 10
0.0
 20
0.0
 30
0.0
  9
$EXTMAX
 10
279.4
 20
215.9
 30
0.0
  9
$LIMMIN
 10
0.0
 20
0.0
  9
$LIMMAX
 10
279.4
 20
215.9
  9
$ORTHOMODE
 70
     0
  9
$REGENMODE
 70
     1
  9
$FILLMODE
 70
     1
  9
$QTEXTMODE
 70
     0
  9
$MIRRTEXT
 70
     1
  9
$LTSCALE
 40
1.0
  9
$ATTMODE
 70
     1
  9
$TEXTSIZE
 40
3.5
  9
$TRACEWID
 40
1.0
  9
$TEXTSTYLE
  7
Standard
  9
$CLAYER
  8
0
  9
$CELTYPE
  6
ByLayer
  9
$CECOLOR
 62
   256
  9
$CELTSCALE
 40
1.0
  9
$DISPSILH
 70
     0
  9
$DIMSCALE
 40
1.0
  9
$DIMASZ
 40
3.5
  9
$DIMEXO
 40
1.0
  9
$DIMDLI
 40
3.75
  9
$DIMRND
 40
0.0
  9
$DIMDLE
 40
0.0
  9
$DIMEXE
 40
1.0
  9
$DIMTP
 40
0.0
  9
$DIMTM
 40
0.0
  9
$DIMTXT
 40
3.5
  9
$DIMCEN
 40
2.5
  9
$DIMTSZ
 40
0.0
  9
$DIMTOL
 70
     0
  9
$DIMLIM
 70
     0
  9
$DIMTIH
 70
     1
  9
$DIMTOH
 70
     1
  9
$DIMSE1
 70
     0
  9
$DIMSE2
 70
     0
  9
$DIMTAD
 70
     1
  9
$DIMZIN
 70
     0
  9
$DIMBLK
  1

  9
$DIMASO
 70
     1
  9
$DIMSHO
 70
     1
  9
$DIMPOST
  1

  9
$DIMAPOST
  1

  9
$DIMALT
 70
     0
  9
$DIMALTD
 70
     3
  9
$DIMALTF
 40
0.0393700787
  9
$DIMLFAC
 40
1.0
  9
$DIMTOFL
 70
     1
  9
$DIMTVP
 40
0.0
  9
$DIMTIX
 70
     0
  9
$DIMSOXD
 70
     0
  9
$DIMSAH
 70
     0
  9
$DIMBLK1
  1

  9
$DIMBLK2
  1

  9
$DIMSTYLE
  2
ISO-25
  9
$DIMCLRD
 70
     0
  9
$DIMCLRE
 70
     0
  9
$DIMCLRT
 70
     0
  9
$DIMTFAC
 40
1.0
  9
$DIMGAP
 40
1.524
  9
$DIMJUST
 70
     0
  9
$DIMSD1
 70
     0
  9
$DIMSD2
 70
     0
  9
$DIMTOLJ
 70
     0
  9
$DIMTZIN
 70
     0
  9
$DIMALTZ
 70
     0
  9
$DIMALTTZ
 70
     0
  9
$DIMUPT
 70
     0
  9
$DIMDEC
 70
     2
  9
$DIMTDEC
 70
     2
  9
$DIMALTU
 70
     2
  9
$DIMALTTD
 70
     3
  9
$DIMTXSTY
  7
Standard
  9
$DIMAUNIT
 70
     0
  9
$DIMADEC
 70
     2
  9
$DIMALTRND
 40
0.0
  9
$DIMAZIN
 70
     0
  9
$DIMDSEP
 70
    44
  9
$DIMATFIT
 70
     3
  9
$DIMFRAC
 70
     0
  9
$DIMLDRBLK
  1

  9
$DIMLUNIT
 70
     2
  9
$DIMLWD
 70
    -2
  9
$DIMLWE
 70
    -2
  9
$DIMTMOVE
 70
     0
  9
$LUNITS
 70
     2
  9
$LUPREC
 70
     2
  9
$SKETCHINC
 40
1.0
  9
$FILLETRAD
 40
10.0
  9
$AUNITS
 70
     0
  9
$AUPREC
 70
     2
  9
$MENU
  1
.
  9
$ELEVATION
 40
0.0
  9
$PELEVATION
 40
0.0
  9
$THICKNESS
 40
0.0
  9
$LIMCHECK
 70
     0
  9
$CHAMFERA
 40
0.0
  9
$CHAMFERB
 40
0.0
  9
$CHAMFERC
 40
0.0
  9
$CHAMFERD
 40
0.0
  9
$SKPOLY
 70
     0
  9
$TDCREATE
 40
2459935.710404826
  9
$TDUCREATE
 40
2459935.585404826
  9
$TDUPDATE
 40
2459935.710405
  9
$TDUUPDATE
 40
2459935.585405
  9
$TDINDWG
 40
0.0000000116
  9
$TDUSRTIMER
 40
0.0000000116
  9
$USRTIMER
 70
     1
  9
$ANGBASE
 50
0.0
  9
$ANGDIR
 70
     0
  9
$PDMODE
 70
     0
  9
$PDSIZE
 40
-1.0
  9
$PLINEWID
 40
0.0
  9
$SPLFRAME
 70
     0
  9
$SPLINETYPE
 70
     6
  9
$SPLINESEGS
 70
     8
  9
$HANDSEED
  5
10F
  9
$SURFTAB1
 70
     6
  9
$SURFTAB2
 70
     6
  9
$SURFTYPE
 70
     6
  9
$SURFU
 70
     6
  9
$SURFV
 70
     6
  9
$UCSBASE
  2

  9
$UCSNAME
  2

  9
$UCSORG
 10
0.0
 20
0.0
 30
0.0
  9
$UCSXDIR
 10
1.0
 20
0.0
 30
0.0
  9
$UCSYDIR
 10
0.0
 20
1.0
 30
0.0
  9
$UCSORTHOREF
  2

  9
$UCSORTHOVIEW
 70
     0
  9
$UCSORGTOP
 10
0.0
 20
0.0
 30
0.0
  9
$UCSORGBOTTOM
 10
0.0
 20
0.0
 30
0.0
  9
$UCSORGLEFT
 10
0.0
 20
0.0
 30
0.0
  9
$UCSORGRIGHT
 10
0.0
 20
0.0
 30
0.0
  9
$UCSORGFRONT
 10
0.0
 20
0.0
 30
0.0
  9
$UCSORGBACK
 10
0.0
 20
0.0
 30
0.0
  9
$PUCSBASE
  2

  9
$PUCSNAME
  2

  9
$PUCSORG
 10
0.0
 20
0.0
 30
0.0
  9
$PUCSXDIR
 10
1.0
 20
0.0
 30
0.0
  9
$PUCSYDIR
 10
0.0
 20
1.0
 30
0.0
  9
$PUCSORTHOREF
  2

  9
$PUCSORTHOVIEW
 70
     0
  9
$PUCSORGTOP
 10
0.0
 20
0.0
 30
0.0
  9
$PUCSORGBOTTOM
 10
0.0
 20
0.0
 30
0.0
  9
$PUCSORGLEFT
 10
0.0
 20
0.0
 30
0.0
  9
$PUCSORGRIGHT
 10
0.0
 20
0.0
 30
0.0
  9
$PUCSORGFRONT
 10
0.0
 20
0.0
 30
0.0
  9
$PUCSORGBACK
 10
0.0
 20
0.0
 30
0.0
  9
$USERI1
 70
     0
  9
$USERI2
 70
     0
  9
$USERI3
 70
     0
  9
$USERI4
 70
     0
  9
$USERI5
 70
     0
  9
$USERR1
 40
0.0
  9
$USERR2
 40
0.0
  9
$USERR3
 40
0.0
  9
$USERR4
 40
0.0
  9
$USERR5
 40
0.0
  9
$WORLDVIEW
 70
     1
  9
$SHADEDGE
 70
     3
  9
$SHADEDIF
 70
    70
  9
$TILEMODE
 70
     1
  9
$MAXACTVP
 70
    64
  9
$PINSBASE
 10
0.0
 20
0.0
 30
0.0
  9
$PLIMCHECK
 70
     0
  9
$PEXTMIN
 10
1.0000000000E+20
 20
1.0000000000E+20
 30
1.0000000000E+20
  9
$PEXTMAX
 10
-1.0000000000E+20
 20
-1.0000000000E+20
 30
-1.0000000000E+20
  9
$PLIMMIN
 10
0.0
 20
0.0
  9
$PLIMMAX
 10
420.0
 20
297.0
  9
$UNITMODE
 70
     0
  9
$VISRETAIN
 70
     1
  9
$PLINEGEN
 70
     0
  9
$PSLTSCALE
 70
     1
  9
$TREEDEPTH
 70
  3020
  9
$CMLSTYLE
  2
Standard
  9
$CMLJUST
 70
     0
  9
$CMLSCALE
 40
20.0
  9
$PROXYGRAPHICS
 70
     1
  9
$MEASUREMENT
 70
     1
  9
$CELWEIGHT
370
    -1
  9
$ENDCAPS
280
     0
  9
$JOINSTYLE
280
     0
  9
$LWDISPLAY
290
     1
  9
$INSUNITS
 70
     4
  9
$HYPERLINKBASE
  1

  9
$STYLESHEET
  1

  9
$XEDIT
290
     1
  9
$CEPSNTYPE
380
     0
  9
$PSTYLEMODE
290
     1
  9
$FINGERPRINTGUID
  2
{11332907-c272-499a-b5f7-781e1a48bfbf}
  9
$VERSIONGUID
  2
{FAEB1C32-E019-11D5-929B-00C0DF256EC4}
  9
$EXTNAMES
290
     1
  9
$PSVPSCALE
 40
0.0
  9
$OLESTARTUP
290
     0
  0
ENDSEC
  0
SECTION
  2
CLASSES
  0
CLASS
  1
ACDBDICTIONARYWDFLT
  2
AcDbDictionaryWithDefault
  3
ObjectDBX Classes
 90
        0
280
     0
281
     0
  0
CLASS
  1
VISUALSTYLE
  2
AcDbVisualStyle
  3
ObjectDBX Classes
 90
     4095
280
     0
281
     0
  0
CLASS
  1
MATERIAL
  2
AcDbMaterial
  3
ObjectDBX Classes
 90
     1153
280
     0
281
     0
  0
CLASS
  1
SCALE
  2
AcDbScale
  3
ObjectDBX Classes
 90
     1153
280
     0
281
     0
  0
CLASS
  1
TABLESTYLE
  2
AcDbTableStyle
  3
ObjectDBX Classes
 90
     4095
280
     0
281
     0
  0
CLASS
  1
MLEADERSTYLE
  2
AcDbMLeaderStyle
  3
ACDB_MLEADERSTYLE_CLASS
 90
     4095
280
     0
281
     0
  0
CLASS
  1
SUN
  2
AcDbSun
  3
SCENEOE
 90
     1153
280
     0
281
     0
  0
CLASS
  1
ACDBPLACEHOLDER
  2
AcDbPlaceHolder
  3
ObjectDBX Classes
 90
        0
280
     0
281
     0
  0
CLASS
  1
LAYOUT
  2
AcDbLayout
  3
ObjectDBX Classes
 90
        0
280
     0
281
     0
  0
ENDSEC
  0
SECTION
  2
TABLES
  0
TABLE
  2
VPORT
  5
8
330
0
100
AcDbSymbolTable
 70
     1
  0
VPORT
  5
29
330
8
100
AcDbSymbolTableRecord
100
AcDbViewportTableRecord
  2
*Active
 70
     0
 10
0.0
 20
0.0
 11
1.0
 21
1.0
 12
139.7
 22
107.95
 13
0.0
 23
0.0
 14
10.0
 24
10.0
 15
10.0
 25
10.0
 16
0.0
 26
0.0
 36
1.0
 17
0.0
 27
0.0
 37
0.0
 40
215.9
 41
1.2941176471
 42
50.0
 43
0.0
 44
0.0
 50
0.0
 51
0.0
 71
     0
 72
  2000
 73
     1
 74
     3
 75
     0
 76
     0
 77
     0
 78
     0
281
     0
 65
     1
110
0.0
120
0.0
130
0.0
111
1.0
121
0.0
131
0.0
112
0.0
122
1.0
132
0.0
 79
     0
146
0.0
  0
ENDTAB
  0
TABLE
  2
LTYPE
  5
5
330
0
100
AcDbSymbolTable
 70
     6
  0
LTYPE
  5
14
330
5
100
AcDbSymbolTableRecord
100
AcDbLinetypeTableRecord
  2
ByBlock
 70
     0
  3

 72
    65
 73
     0
 40
0.0
  0
LTYPE
  5
15
330
5
100
AcDbSymbolTableRecord
100
AcDbLinetypeTableRecord
  2
ByLayer
 70
     0
  3

 72
    65
 73
     0
 40
0.0
  0
LTYPE
  5
16
330
5
100
AcDbSymbolTableRecord
100
AcDbLinetypeTableRecord
  2
Continuous
 70
     0
  3
Solid line
 72
    65
 73
     0
 40
0.0
  0
LTYPE
  5
6E
330
5
100
AcDbSymbolTableRecord
100
AcDbLinetypeTableRecord
  2
HIDDEN
 70
     0
  3
Hidden __ __ __ __ __ __ __ __ __ __ __ __ __ __
 72
    65
 73
     2
 40
1.905
 49
1.27
 74
     0
 49
-0.635
 74
     0
  0
LTYPE
  5
6F
330
5
100
AcDbSymbolTableRecord
100
AcDbLinetypeTableRecord
  2
PHANTOM
 70
     0
  3
Phantom ______  __  __  ______  __  __  ______
 72
    65
 73
     6
 40
12.7
 49
6.35
 74
     0
 49
-1.27
 74
     0
 49
1.27
 74
     0
 49
-1.27
 74
     0
 49
1.27
 74
     0
 49
-1.27
 74
     0
  0
LTYPE
  5
70
330
5
100
AcDbSymbolTableRecord
100
AcDbLinetypeTableRecord
  2
CENTER
 70
     0
  3
Center ____ _ ____ _ ____ _ ____ _ ____ _ ____
 72
    65
 73
     4
 40
10.16
 49
6.35
 74
     0
 49
-1.27
 74
     0
 49
1.27
 74
     0
 49
-1.27
 74
     0
  0
LTYPE
  5
71
330
5
100
AcDbSymbolTableRecord
100
AcDbLinetypeTableRecord
  2
CENTERX2
 70
     0
  3
Center (2x) ________  __  ________  __  _____
 72
    65
 73
     4
 40
20.32
 49
12.7
 74
     0
 49
-2.54
 74
     0
 49
2.54
 74
     0
 49
-2.54
 74
     0
  0
LTYPE
  5
72
330
5
100
AcDbSymbolTableRecord
100
AcDbLinetypeTableRecord
  2
DOT2
 70
     0
  3
Dot (.5x) ........................................
 72
    65
 73
     2
 40
0.635
 49
0.0
 74
     0
 49
-0.635
 74
     0
  0
ENDTAB
  0
TABLE
  2
LAYER
  5
2
330
0
100
AcDbSymbolTable
 70
    17
  0
LAYER
  5
10
330
2
100
AcDbSymbolTableRecord
100
AcDbLayerTableRecord
  2
0
 70
     0
 62
     7
  6
Continuous
370
    -3
390
F
  0
LAYER
  5
73
330
2
100
AcDbSymbolTableRecord
100
AcDbLayerTableRecord
  2
FORMAT
 70
     0
 62
     7
  6
Continuous
370
    -3
390
F
  0
LAYER
  5
74
330
2
100
AcDbSymbolTableRecord
100
AcDbLayerTableRecord
  2
YARDIMCI_GEOMETRI
 70
     0
 62
    -6
  6
Continuous
290
     0
370
    -3
390
F
  0
LAYER
  5
75
330
2
100
AcDbSymbolTableRecord
100
AcDbLayerTableRecord
  2
SAYFA_CERCEVESI
 70
     0
 62
     7
  6
Continuous
370
    25
390
F
  0
LAYER
  5
76
330
2
100
AcDbSymbolTableRecord
100
AcDbLayerTableRecord
  2
ANTET
 70
     0
 62
     7
  6
Continuous
370
    -3
390
F
  0
LAYER
  5
77
330
2
100
AcDbSymbolTableRecord
100
AcDbLayerTableRecord
  2
OLCU
 70
     0
 62
   150
  6
Continuous
370
    -3
390
F
  0
LAYER
  5
78
330
2
100
AcDbSymbolTableRecord
100
AcDbLayerTableRecord
  2
METIN
 70
     0
 62
    96
  6
Continuous
370
    -3
390
F
  0
LAYER
  5
79
330
2
100
AcDbSymbolTableRecord
100
AcDbLayerTableRecord
  2
BALON
 70
     0
 62
     5
  6
Continuous
370
    -3
390
F
  0
LAYER
  5
7A
330
2
100
AcDbSymbolTableRecord
100
AcDbLayerTableRecord
  2
VURGU
 70
     0
 62
     7
  6
Continuous
370
    -3
390
F
  0
LAYER
  5
7B
330
2
100
AcDbSymbolTableRecord
100
AcDbLayerTableRecord
  2
SILIK
 70
     0
 62
     7
  6
Continuous
370
    -3
390
F
  0
LAYER
  5
7C
330
2
100
AcDbSymbolTableRecord
100
AcDbLayerTableRecord
  2
MODEL
 70
     0
 62
     7
  6
Continuous
370
    -3
390
F
  0
LAYER
  5
7D
330
2
100
AcDbSymbolTableRecord
100
AcDbLayerTableRecord
  2
DETAYLANDıRMA
 70
     0
 62
   190
  6
Continuous
370
    -3
390
F
  0
LAYER
  5
7E
330
2
100
AcDbSymbolTableRecord
100
AcDbLayerTableRecord
  2
TOLERANS
 70
     0
 62
   230
  6
Continuous
370
    -3
390
F
  0
LAYER
  5
7F
330
2
100
AcDbSymbolTableRecord
100
AcDbLayerTableRecord
  2
MERKEZ_CIZGILERI
 70
     0
 62
    30
  6
Continuous
370
    -3
390
F
  0
LAYER
  5
80
330
2
100
AcDbSymbolTableRecord
100
AcDbLayerTableRecord
  2
KESIT-DETAY_CIZGILERI
 70
     0
 62
     7
  6
Continuous
370
    -3
390
F
  0
LAYER
  5
81
330
2
100
AcDbSymbolTableRecord
100
AcDbLayerTableRecord
  2
\U+041E\U+0421\U+0415\U+0412\U+042B\U+0415
 70
     0
 62
     7
  6
Continuous
370
    -3
390
F
  0
LAYER
  5
82
330
2
100
AcDbSymbolTableRecord
100
AcDbLayerTableRecord
  2
\U+0412\U+041E\U+0414\U+042F\U+041D\U+042B\U+0415_\U+0417\U+041D\U+0410\U+041A\U+0418
 70
     0
 62
    11
  6
Continuous
370
    -3
390
F
  0
ENDTAB
  0
TABLE
  2
STYLE
  5
3
330
0
100
AcDbSymbolTable
 70
     1
  0
STYLE
  5
11
330
3
100
AcDbSymbolTableRecord
100
AcDbTextStyleTableRecord
  2
Standard
 70
     0
 40
0.0
 41
1.0
 50
0.0
 71
     0
 42
3.5
  3
txt
  4

  0
ENDTAB
  0
TABLE
  2
VIEW
  5
6
330
0
100
AcDbSymbolTable
 70
     0
  0
ENDTAB
  0
TABLE
  2
UCS
  5
7
330
0
100
AcDbSymbolTable
 70
     0
  0
ENDTAB
  0
TABLE
  2
APPID
  5
9
330
0
100
AcDbSymbolTable
 70
     1
  0
APPID
  5
12
330
9
100
AcDbSymbolTableRecord
100
AcDbRegAppTableRecord
  2
ACAD
 70
     0
  0
ENDTAB
  0
TABLE
  2
DIMSTYLE
  5
A
330
0
100
AcDbSymbolTable
 70
     1
100
AcDbDimStyleTable
  0
DIMSTYLE
105
27
330
A
100
AcDbSymbolTableRecord
100
AcDbDimStyleTableRecord
  2
ISO-25
 70
     0
 41
2.5
 42
0.625
 43
3.75
 44
1.25
 73
     0
 74
     0
 77
     1
 78
     8
140
2.5
141
2.5
143
0.0393700787
147
0.625
171
     3
172
     1
178
     0
271
     2
272
     2
274
     3
278
    44
283
     0
284
     8
340
11
  0
ENDTAB
  0
TABLE
  2
BLOCK_RECORD
  5
1
330
0
100
AcDbSymbolTable
 70
     4
  0
BLOCK_RECORD
  5
1F
330
1
100
AcDbSymbolTableRecord
100
AcDbBlockTableRecord
  2
*Model_Space
340
22
  0
BLOCK_RECORD
  5
1B
330
1
100
AcDbSymbolTableRecord
100
AcDbBlockTableRecord
  2
*Paper_Space
340
1E
  0
BLOCK_RECORD
  5
23
330
1
100
AcDbSymbolTableRecord
100
AcDbBlockTableRecord
  2
*Paper_Space0
340
26
  0
BLOCK_RECORD
  5
8C
330
1
100
AcDbSymbolTableRecord
100
AcDbBlockTableRecord
  2
SW_CENTERMARKSYMBOL_0
340
0
102
{BLKREFS
331
97
102
}
  0
BLOCK_RECORD
  5
DE
330
1
100
AcDbSymbolTableRecord
100
AcDbBlockTableRecord
  2
SW_CENTERMARKSYMBOL_1
340
0
102
{BLKREFS
331
E9
102
}
  0
BLOCK_RECORD
  5
EA
330
1
100
AcDbSymbolTableRecord
100
AcDbBlockTableRecord
  2
SW_CENTERMARKSYMBOL_2
340
0
102
{BLKREFS
331
F5
102
}
  0
ENDTAB
  0
ENDSEC
  0
SECTION
  2
BLOCKS
  0
BLOCK
  5
20
330
1F
100
AcDbEntity
  8
0
100
AcDbBlockBegin
  2
*Model_Space
 70
     0
 10
0.0
 20
0.0
 30
0.0
  3
*Model_Space
  1

  0
ENDBLK
  5
21
330
1F
100
AcDbEntity
  8
0
100
AcDbBlockEnd
  0
BLOCK
  5
1C
330
1B
100
AcDbEntity
 67
     1
  8
0
100
AcDbBlockBegin
  2
*Paper_Space
 70
     0
 10
0.0
 20
0.0
 30
0.0
  3
*Paper_Space
  1

  0
ENDBLK
  5
1D
330
1B
100
AcDbEntity
 67
     1
  8
0
100
AcDbBlockEnd
  0
BLOCK
  5
24
330
23
100
AcDbEntity
  8
0
100
AcDbBlockBegin
  2
*Paper_Space0
 70
     0
 10
0.0
 20
0.0
 30
0.0
  3
*Paper_Space0
  1

  0
ENDBLK
  5
25
330
23
100
AcDbEntity
  8
0
100
AcDbBlockEnd
  0
BLOCK
  5
8D
330
8C
100
AcDbEntity
  8
0
100
AcDbBlockBegin
  2
SW_CENTERMARKSYMBOL_0
 70
     0
 10
0.0
 20
0.0
 30
0.0
  3
SW_CENTERMARKSYMBOL_0
  1

  0
LINE
  5
8F
330
8C
100
AcDbEntity
  8
FORMAT
 62
     0
100
AcDbLine
 10
0.0
 20
0.0
 30
0.0
 11
0.0
 21
2.5
 31
0.0
  0
LINE
  5
90
330
8C
100
AcDbEntity
  8
FORMAT
 62
     0
100
AcDbLine
 10
0.0
 20
0.0
 30
0.0
 11
-2.5
 21
0.0
 31
0.0
  0
LINE
  5
91
330
8C
100
AcDbEntity
  8
FORMAT
 62
     0
100
AcDbLine
 10
0.0
 20
0.0
 30
0.0
 11
0.0
 21
-2.5
 31
0.0
  0
LINE
  5
92
330
8C
100
AcDbEntity
  8
FORMAT
 62
     0
100
AcDbLine
 10
0.0
 20
0.0
 30
0.0
 11
2.5
 21
0.0
 31
0.0
  0
LINE
  5
93
330
8C
100
AcDbEntity
  8
FORMAT
 62
     0
100
AcDbLine
 10
0.0
 20
5.0
 30
0.0
 11
0.0
 21
143.15
 31
0.0
  0
LINE
  5
94
330
8C
100
AcDbEntity
  8
FORMAT
 62
     0
100
AcDbLine
 10
-5.0
 20
0.0
 30
0.0
 11
-143.15
 21
0.0
 31
0.0
  0
LINE
  5
95
330
8C
100
AcDbEntity
  8
FORMAT
 62
     0
100
AcDbLine
 10
0.0
 20
-5.0
 30
0.0
 11
0.0
 21
-143.15
 31
0.0
  0
LINE
  5
96
330
8C
100
AcDbEntity
  8
FORMAT
 62
     0
100
AcDbLine
 10
5.0
 20
0.0
 30
0.0
 11
143.15
 21
0.0
 31
0.0
  0
ENDBLK
  5
8E
330
8C
100
AcDbEntity
  8
0
100
AcDbBlockEnd
  0
BLOCK
  5
DF
330
DE
100
AcDbEntity
  8
0
100
AcDbBlockBegin
  2
SW_CENTERMARKSYMBOL_1
 70
     0
 10
0.0
 20
0.0
 30
0.0
  3
SW_CENTERMARKSYMBOL_1
  1

  0
LINE
  5
E1
330
DE
100
AcDbEntity
  8
FORMAT
 62
     0
100
AcDbLine
 10
0.0
 20
0.0
 30
0.0
 11
0.0
 21
2.5
 31
0.0
  0
LINE
  5
E2
330
DE
100
AcDbEntity
  8
FORMAT
 62
     0
100
AcDbLine
 10
0.0
 20
0.0
 30
0.0
 11
-2.5
 21
0.0
 31
0.0
  0
LINE
  5
E3
330
DE
100
AcDbEntity
  8
FORMAT
 62
     0
100
AcDbLine
 10
0.0
 20
0.0
 30
0.0
 11
0.0
 21
-2.5
 31
0.0
  0
LINE
  5
E4
330
DE
100
AcDbEntity
  8
FORMAT
 62
     0
100
AcDbLine
 10
0.0
 20
0.0
 30
0.0
 11
2.5
 21
0.0
 31
0.0
  0
LINE
  5
E5
330
DE
100
AcDbEntity
  8
FORMAT
 62
     0
100
AcDbLine
 10
0.0
 20
5.0
 30
0.0
 11
0.0
 21
9.5
 31
0.0
  0
LINE
  5
E6
330
DE
100
AcDbEntity
  8
FORMAT
 62
     0
100
AcDbLine
 10
-5.0
 20
0.0
 30
0.0
 11
-9.5
 21
0.0
 31
0.0
  0
LINE
  5
E7
330
DE
100
AcDbEntity
  8
FORMAT
 62
     0
100
AcDbLine
 10
0.0
 20
-5.0
 30
0.0
 11
0.0
 21
-9.5
 31
0.0
  0
LINE
  5
E8
330
DE
100
AcDbEntity
  8
FORMAT
 62
     0
100
AcDbLine
 10
5.0
 20
0.0
 30
0.0
 11
9.5
 21
0.0
 31
0.0
  0
ENDBLK
  5
E0
330
DE
100
AcDbEntity
  8
0
100
AcDbBlockEnd
  0
BLOCK
  5
EB
330
EA
100
AcDbEntity
  8
0
100
AcDbBlockBegin
  2
SW_CENTERMARKSYMBOL_2
 70
     0
 10
0.0
 20
0.0
 30
0.0
  3
SW_CENTERMARKSYMBOL_2
  1

  0
LINE
  5
ED
330
EA
100
AcDbEntity
  8
FORMAT
 62
     0
100
AcDbLine
 10
0.0
 20
0.0
 30
0.0
 11
0.0
 21
2.5
 31
0.0
  0
LINE
  5
EE
330
EA
100
AcDbEntity
  8
FORMAT
 62
     0
100
AcDbLine
 10
0.0
 20
0.0
 30
0.0
 11
-2.5
 21
0.0
 31
0.0
  0
LINE
  5
EF
330
EA
100
AcDbEntity
  8
FORMAT
 62
     0
100
AcDbLine
 10
0.0
 20
0.0
 30
0.0
 11
0.0
 21
-2.5
 31
0.0
  0
LINE
  5
F0
330
EA
100
AcDbEntity
  8
FORMAT
 62
     0
100
AcDbLine
 10
0.0
 20
0.0
 30
0.0
 11
2.5
 21
0.0
 31
0.0
  0
LINE
  5
F1
330
EA
100
AcDbEntity
  8
FORMAT
 62
     0
100
AcDbLine
 10
0.0
 20
5.0
 30
0.0
 11
0.0
 21
9.5
 31
0.0
  0
LINE
  5
F2
330
EA
100
AcDbEntity
  8
FORMAT
 62
     0
100
AcDbLine
 10
-5.0
 20
0.0
 30
0.0
 11
-9.5
 21
0.0
 31
0.0
  0
LINE
  5
F3
330
EA
100
AcDbEntity
  8
FORMAT
 62
     0
100
AcDbLine
 10
0.0
 20
-5.0
 30
0.0
 11
0.0
 21
-9.5
 31
0.0
  0
LINE
  5
F4
330
EA
100
AcDbEntity
  8
FORMAT
 62
     0
100
AcDbLine
 10
5.0
 20
0.0
 30
0.0
 11
9.5
 21
0.0
 31
0.0
  0
ENDBLK
  5
EC
330
EA
100
AcDbEntity
  8
0
100
AcDbBlockEnd
  0
ENDSEC
  0
SECTION
  2
ENTITIES
  0
LINE
  5
83
330
1F
100
AcDbEntity
  8
0
  6
Continuous
 62
     7
370
    25
100
AcDbLine
 10
137.6070913462
 20
263.6091896814
 30
0.0
 11
137.6070913462
 21
272.5949519231
 31
0.0
  0
LINE
  5
84
330
1F
100
AcDbEntity
  8
0
  6
Continuous
 62
     7
370
    25
100
AcDbLine
 10
123.6070913462
 20
272.5949519231
 30
0.0
 11
123.6070913462
 21
263.6099229937
 31
0.0
  0
CIRCLE
  5
85
330
1F
100
AcDbEntity
  8
0
  6
Continuous
 62
     7
370
    25
100
AcDbCircle
 10
130.6070913462
 20
95.8949519231
 30
0.0
 40
167.65
  0
ARC
  5
86
330
1F
100
AcDbEntity
  8
0
  6
Continuous
 62
     7
370
    25
100
AcDbCircle
 10
130.6070913462
 20
95.8949519231
 30
0.0
 40
168.6499999999996
100
AcDbArc
 50
92.3788064252
 51
180.0
  0
ARC
  5
87
330
1F
100
AcDbEntity
  8
0
  6
Continuous
 62
     7
370
    25
100
AcDbCircle
 10
130.6070913462
 20
95.8949519231
 30
0.0
 40
168.6499999999996
100
AcDbArc
 50
180.0
 51
87.6211935748
  0
SPLINE
  5
88
330
1F
100
AcDbEntity
  8
0
  6
Continuous
 62
     7
370
    25
100
AcDbSpline
210
0.0
220
0.0
230
1.0
 70
     8
 71
     3
 72
    14
 73
    10
 74
     0
 42
0.00000001
 43
0.00000001
 40
0.0
 40
0.0
 40
0.0
 40
0.0
 40
0.1560533214489732
 40
0.3121079327712972
 40
0.4681330179355851
 40
0.624173565907737
 40
0.780251805605589
 40
0.9362910872694008
 40
1.0
 40
1.0
 40
1.0
 40
1.0
 10
134.5073890605089
 20
263.6094312983346
 30
0.0
 10
133.8107764719319
 20
263.6168765442006
 30
0.0
 10
132.4175455368612
 20
263.6317670974719
 30
0.0
 10
130.0049914601568
 20
263.6369011515117
 30
0.0
 10
127.6954160635891
 20
263.6222562377906
 30
0.0
 10
125.6926956503424
 20
263.5966478472051
 30
0.0
 10
124.2938252142176
 20
263.5806588263214
 30
0.0
 10
123.5984812150216
 20
263.5825150347794
 30
0.0
 10
123.6794591270135
 20
263.6037628685422
 30
0.0
 10
123.7029360649807
 20
263.6099229937284
 30
0.0
  0
SPLINE
  5
89
330
1F
100
AcDbEntity
  8
0
  6
Continuous
 62
     7
370
    25
100
AcDbSpline
210
0.0
220
0.0
230
1.0
 70
     8
 71
     3
 72
    11
 73
     7
 74
     0
 42
0.00000001
 43
0.00000001
 40
0.0
 40
0.0
 40
0.0
 40
0.0
 40
0.0946302567895087
 40
0.4387117819449038
 40
0.7826628175568126
 40
1.0
 40
1.0
 40
1.0
 40
1.0
 10
137.5279363671998
 20
263.6091896814022
 30
0.0
 10
137.5512132475735
 20
263.6047607138634
 30
0.0
 10
137.6591263190725
 20
263.5842277436796
 30
0.0
 10
137.0486758741722
 20
263.5802241870934
 30
0.0
 10
135.9240986154799
 20
263.5917482559155
 30
0.0
 10
134.9028342422621
 20
263.6044954426408
 30
0.0
 10
134.5073890605089
 20
263.6094312983346
 30
0.0
  0
CIRCLE
  5
8A
330
1F
100
AcDbEntity
  8
0
  6
Continuous
 62
     7
370
    25
100
AcDbCircle
 10
130.6070913462
 20
95.8949519231
 30
0.0
 40
140.65
  0
LINE
  5
8B
330
1F
100
AcDbEntity
  8
0
  6
Continuous
 62
     7
370
    25
100
AcDbLine
 10
137.6070913462
 20
272.5949519231
 30
0.0
 11
123.6070913462
 21
272.5949519231
 31
0.0
  0
INSERT
  5
97
330
1F
100
AcDbEntity
  8
FORMAT
 62
     7
100
AcDbBlockReference
  2
SW_CENTERMARKSYMBOL_0
 10
130.6070913462
 20
95.8949519231
 30
0.0
  0
LINE
  5
98
330
1F
100
AcDbEntity
  8
0
  6
Continuous
 62
     7
370
    25
100
AcDbLine
 10
491.9553815997
 20
263.6347775794
 30
0.0
 11
486.9221211922
 21
263.5449519231
 31
0.0
  0
ARC
  5
99
330
1F
100
AcDbEntity
  8
0
  6
Continuous
 62
     7
370
    25
100
AcDbCircle
 10
596.4221211922
 20
-5731.080048077
 30
0.0
 40
5995.625000000038
100
AcDbArc
 50
90.0
 51
90.865538614
  0
ARC
  5
9A
330
1F
100
AcDbEntity
  8
0
  6
Continuous
 62
     7
370
    25
100
AcDbCircle
 10
596.4221211922
 20
5922.8699519231
 30
0.0
 40
5995.625000000038
100
AcDbArc
 50
268.9535308356
 51
270.0
  0
LINE
  5
9B
330
1F
100
AcDbEntity
  8
0
  6
Continuous
 62
     7
370
    25
100
AcDbLine
 10
596.4221211922
 20
-72.7550480769
 30
0.0
 11
621.4221211922
 21
-72.7550480769
 31
0.0
  0
LINE
  5
9C
330
1F
100
AcDbEntity
  8
0
  6
Continuous
 62
     7
370
    25
100
AcDbLine
 10
621.4221211922
 20
264.5449519231
 30
0.0
 11
596.4221211922
 21
264.5449519231
 31
0.0
  0
ARC
  5
9D
330
1F
100
AcDbEntity
  8
0
  6
Continuous
 62
     7
370
    25
100
AcDbCircle
 10
621.4221211922
 20
-5731.080048077
 30
0.0
 40
5995.625000000038
100
AcDbArc
 50
89.1348896747
 51
90.0
  0
LINE
  5
9E
330
1F
100
AcDbEntity
  8
0
  6
Continuous
 62
     7
370
    25
100
AcDbLine
 10
730.9221211922
 20
263.5449519231
 30
0.0
 11
725.8478504554
 21
263.6354921045
 31
0.0
  0
ARC
  5
9F
330
1F
100
AcDbEntity
  8
0
  6
Continuous
 62
     7
370
    25
100
AcDbCircle
 10
621.4221211922
 20
5922.8699519231
 30
0.0
 40
5995.625000000038
100
AcDbArc
 50
270.0
 51
271.0464691644
  0
LINE
  5
A0
330
1F
100
AcDbEntity
  8
0
  6
Continuous
 62
     7
370
    25
100
AcDbLine
 10
505.9221211922
 20
263.85803055
 30
0.0
 11
505.9221211922
 21
272.5949519231
 31
0.0
  0
LINE
  5
A1
330
1F
100
AcDbEntity
  8
0
  6
Continuous
 62
     7
370
    25
100
AcDbLine
 10
491.9221211922
 20
272.5949519231
 30
0.0
 11
491.9221211922
 21
263.6334314424
 31
0.0
  0
LINE
  5
A2
330
1F
100
AcDbEntity
  8
0
  6
Continuous
 62
     7
370
    25
100
AcDbLine
 10
725.9221211922
 20
263.6324416414
 30
0.0
 11
725.9221211922
 21
272.5949519231
 31
0.0
  0
LINE
  5
A3
330
1F
100
AcDbEntity
  8
0
  6
Continuous
 62
     7
370
    25
100
AcDbLine
 10
711.9221211922
 20
272.5949519231
 30
0.0
 11
711.9221211922
 21
263.8605527558
 31
0.0
  0
LINE
  5
A4
330
1F
100
AcDbEntity
  8
0
  6
Continuous
 62
     7
370
    25
100
AcDbLine
 10
486.9221211922
 20
95.8949519231
 30
0.0
 11
486.9221211922
 21
263.5449519231
 31
0.0
  0
LINE
  5
A5
330
1F
100
AcDbEntity
  8
0
  6
Continuous
 62
     7
370
    25
100
AcDbLine
 10
486.9221211922
 20
-71.7550480769
 30
0.0
 11
486.9221211922
 21
95.8949519231
 31
0.0
  0
SPLINE
  5
A6
330
1F
100
AcDbEntity
  8
0
  6
Continuous
 62
     7
370
    25
100
AcDbSpline
210
0.0
220
0.0
230
1.0
 70
     8
 71
     3
 72
    18
 73
    14
 74
     0
 42
0.00000001
 43
0.00000001
 40
0.0
 40
0.0
 40
0.0
 40
0.0
 40
0.0242882990508582
 40
0.1314573324818764
 40
0.2386619667675689
 40
0.3460166620707303
 40
0.4534519863302727
 40
0.5608205327910502
 40
0.6680882052011501
 40
0.7753464623465793
 40
0.8826605835350537
 40
0.9899946001125588
 40
1.0
 40
1.0
 40
1.0
 40
1.0
 10
505.8527478611028
 20
263.8579936495541
 30
0.0
 10
505.8741123377159
 20
263.8591942299725
 30
0.0
 10
505.9897448527612
 20
263.8656922189386
 30
0.0
 10
505.416148675332
 20
263.8330165731797
 30
0.0
 10
504.1553573008654
 20
263.7681793261223
 30
0.0
 10
502.2394563287369
 20
263.6875790785015
 30
0.0
 10
499.9658954840962
 20
263.6207985365964
 30
0.0
 10
497.5682932646801
 20
263.5840182290054
 30
0.0
 10
495.3315388715786
 20
263.5808226248711
 30
0.0
 10
493.4774876698429
 20
263.6012329464289
 30
0.0
 10
492.3181944361921
 20
263.6243303901221
 30
0.0
 10
491.8158387649717
 20
263.6366863391492
 30
0.0
 10
491.9445733474586
 20
263.6336713846333
 30
0.0
 10
491.9555504003188
 20
263.6334143028574
 30
0.0
  0
LINE
  5
A7
330
1F
100
AcDbEntity
  8
0
  6
Continuous
 62
     7
370
    25
100
AcDbLine
 10
730.9221211922
 20
95.8949519231
 30
0.0
 11
730.9221211922
 21
263.5449519231
 31
0.0
  0
LINE
  5
A8
330
1F
100
AcDbEntity
  8
0
  6
Continuous
 62
     7
370
    25
100
AcDbLine
 10
730.9221211922
 20
-71.7550480769
 30
0.0
 11
730.9221211922
 21
95.8949519231
 31
0.0
  0
SPLINE
  5
A9
330
1F
100
AcDbEntity
  8
0
  6
Continuous
 62
     7
370
    25
100
AcDbSpline
210
0.0
220
0.0
230
1.0
 70
     8
 71
     3
 72
    18
 73
    14
 74
     0
 42
0.00000001
 43
0.00000001
 40
0.0
 40
0.0
 40
0.0
 40
0.0
 40
0.0268409349272658
 40
0.1341428800378559
 40
0.2414554592676899
 40
0.3487939599413606
 40
0.4561056683025914
 40
0.5633631055376722
 40
0.670641276710104
 40
0.7780245688313989
 40
0.8854623080836733
 40
0.9928048601844796
 40
0.9999999999999999
 40
0.9999999999999999
 40
0.9999999999999999
 40
0.9999999999999999
 10
725.8477302483774
 20
263.6324278716884
 30
0.0
 10
725.8702300635377
 20
263.6329625055238
 30
0.0
 10
725.9826773390935
 20
263.6356344438391
 30
0.0
 10
725.393632164347
 20
263.6212292822917
 30
0.0
 10
724.112195251908
 20
263.5972209594055
 30
0.0
 10
722.1830064986466
 20
263.5793934717442
 30
0.0
 10
719.9037157287933
 20
263.5874567135164
 30
0.0
 10
717.5085872233439
 20
263.6295760361078
 30
0.0
 10
715.2801342219021
 20
263.6996535872429
 30
0.0
 10
713.4377015179396
 20
263.7803557637648
 30
0.0
 10
712.2985578297964
 20
263.8402766795016
 30
0.0
 10
711.8087238920788
 20
263.868224386903
 30
0.0
 10
711.9386481310208
 20
263.8609711138145
 30
0.0
 10
711.9468098378701
 20
263.860515470671
 30
0.0
  0
LINE
  5
AA
330
1F
100
AcDbEntity
  8
0
  6
Continuous
 62
     7
370
    25
100
AcDbLine
 10
505.9221211922
 20
272.5949519231
 30
0.0
 11
491.9221211922
 21
272.5949519231
 31
0.0
  0
LINE
  5
AB
330
1F
100
AcDbEntity
  8
0
  6
Continuous
 62
     7
370
    25
100
AcDbLine
 10
725.9221211922
 20
272.5949519231
 30
0.0
 11
711.9221211922
 21
272.5949519231
 31
0.0
  0
LINE
  5
AC
330
1F
100
AcDbEntity
  8
0
  6
Continuous
 62
     1
370
    25
100
AcDbLine
 10
596.4221211922
 20
95.8949519231
 30
0.0
 11
596.4221211922
 21
264.5449519231
 31
0.0
  0
LINE
  5
AD
330
1F
100
AcDbEntity
  8
0
  6
Continuous
 62
     1
370
    25
100
AcDbLine
 10
596.4221211922
 20
-72.7550480769
 30
0.0
 11
596.4221211922
 21
95.8949519231
 31
0.0
  0
LINE
  5
AE
330
1F
100
AcDbEntity
  8
0
  6
Continuous
 62
     1
370
    25
100
AcDbLine
 10
621.4221211922
 20
95.8949519231
 30
0.0
 11
621.4221211922
 21
264.5449519231
 31
0.0
  0
LINE
  5
AF
330
1F
100
AcDbEntity
  8
0
  6
Continuous
 62
     1
370
    25
100
AcDbLine
 10
621.4221211922
 20
-72.7550480769
 30
0.0
 11
621.4221211922
 21
95.8949519231
 31
0.0
  0
ARC
  5
B0
330
1F
100
AcDbEntity
  8
0
  6
Continuous
 62
     7
370
    25
100
AcDbCircle
 10
5957.5820913462
 20
531.3749417301
 30
0.0
 40
5995.625000000038
100
AcDbArc
 50
180.0
 51
181.0464691644
  0
ARC
  5
B1
330
1F
100
AcDbEntity
  8
0
  6
Continuous
 62
     7
370
    25
100
AcDbCircle
 10
-5696.3679086539
 20
531.3749417301
 30
0.0
 40
5995.625000000037
100
AcDbArc
 50
358.9535308356
 51
0.0
  0
LINE
  5
B2
330
1F
100
AcDbEntity
  8
0
  6
Continuous
 62
     7
370
    25
100
AcDbLine
 10
299.2570913462
 20
531.3749417301
 30
0.0
 11
299.2570913462
 21
556.3749417301
 31
0.0
  0
LINE
  5
B3
330
1F
100
AcDbEntity
  8
0
  6
Continuous
 62
     7
370
    25
100
AcDbLine
 10
-38.0429086538
 20
556.3749417301
 30
0.0
 11
-38.0429086538
 21
531.3749417301
 31
0.0
  0
ARC
  5
B4
330
1F
100
AcDbEntity
  8
0
  6
Continuous
 62
     7
370
    25
100
AcDbCircle
 10
5957.5820913462
 20
556.3749417301
 30
0.0
 40
5995.625000000038
100
AcDbArc
 50
178.9535308356
 51
180.0
  0
ARC
  5
B5
330
1F
100
AcDbEntity
  8
0
  6
Continuous
 62
     7
370
    25
100
AcDbCircle
 10
-5696.3679086539
 20
556.3749417301
 30
0.0
 40
5995.625000000038
100
AcDbArc
 50
0.0
 51
1.0464691644
  0
LINE
  5
B6
330
1F
100
AcDbEntity
  8
0
  6
Continuous
 62
     7
370
    25
100
AcDbLine
 10
298.2570913462
 20
421.8749417301
 30
0.0
 11
-37.0429086538
 21
421.8749417301
 31
0.0
  0
LINE
  5
B7
330
1F
100
AcDbEntity
  8
0
  6
Continuous
 62
     7
370
    25
100
AcDbLine
 10
298.2570913462
 20
665.8749417301
 30
0.0
 11
-37.0429086538
 21
665.8749417301
 31
0.0
  0
LINE
  5
B8
330
1F
100
AcDbEntity
  8
0
  6
Continuous
 62
     1
370
    25
100
AcDbLine
 10
299.2570913462
 20
531.3749417301
 30
0.0
 11
-38.0429086538
 21
531.3749417301
 31
0.0
  0
LINE
  5
B9
330
1F
100
AcDbEntity
  8
0
  6
Continuous
 62
     1
370
    25
100
AcDbLine
 10
299.2570913462
 20
556.3749417301
 30
0.0
 11
-38.0429086538
 21
556.3749417301
 31
0.0
  0
ARC
  5
BA
330
1F
100
AcDbEntity
  8
0
  6
Continuous
 62
     7
370
    25
100
AcDbCircle
 10
-357.3239926911
 20
5922.8699519231
 30
0.0
 40
5995.625000000038
100
AcDbArc
 50
270.0
 51
271.0464691644
  0
ARC
  5
BB
330
1F
100
AcDbEntity
  8
0
  6
Continuous
 62
     7
370
    25
100
AcDbCircle
 10
-357.3239926911
 20
-5731.080048077
 30
0.0
 40
5995.625000000038
100
AcDbArc
 50
89.1344623495
 51
90.0
  0
LINE
  5
BC
330
1F
100
AcDbEntity
  8
0
  6
Continuous
 62
     7
370
    25
100
AcDbLine
 10
-247.8239926911
 20
263.5449519231
 30
0.0
 11
-252.8573512495
 21
263.6347792898
 31
0.0
  0
LINE
  5
BD
330
1F
100
AcDbEntity
  8
0
  6
Continuous
 62
     7
370
    25
100
AcDbLine
 10
-357.3239926911
 20
264.5449519231
 30
0.0
 11
-382.3239926911
 21
264.5449519231
 31
0.0
  0
LINE
  5
BE
330
1F
100
AcDbEntity
  8
0
  6
Continuous
 62
     7
370
    25
100
AcDbLine
 10
-382.3239926911
 20
-72.7550480769
 30
0.0
 11
-357.3239926911
 21
-72.7550480769
 31
0.0
  0
ARC
  5
BF
330
1F
100
AcDbEntity
  8
0
  6
Continuous
 62
     7
370
    25
100
AcDbCircle
 10
-382.3239926911
 20
5922.8699519231
 30
0.0
 40
5995.625000000038
100
AcDbArc
 50
268.9535308356
 51
270.0
  0
LINE
  5
C0
330
1F
100
AcDbEntity
  8
0
  6
Continuous
 62
     7
370
    25
100
AcDbLine
 10
-486.7498032642
 20
263.6354906881
 30
0.0
 11
-491.8239926911
 21
263.5449519231
 31
0.0
  0
ARC
  5
C1
330
1F
100
AcDbEntity
  8
0
  6
Continuous
 62
     7
370
    25
100
AcDbCircle
 10
-382.3239926911
 20
-5731.080048077
 30
0.0
 40
5995.625000000038
100
AcDbArc
 50
90.0
 51
90.8651113687
  0
LINE
  5
C2
330
1F
100
AcDbEntity
  8
0
  6
Continuous
 62
     7
370
    25
100
AcDbLine
 10
-252.8239926911
 20
263.6334314424
 30
0.0
 11
-252.8239926911
 21
272.5949519231
 31
0.0
  0
LINE
  5
C3
330
1F
100
AcDbEntity
  8
0
  6
Continuous
 62
     7
370
    25
100
AcDbLine
 10
-266.8239926911
 20
272.5949519231
 30
0.0
 11
-266.8239926911
 21
263.85803055
 31
0.0
  0
LINE
  5
C4
330
1F
100
AcDbEntity
  8
0
  6
Continuous
 62
     7
370
    25
100
AcDbLine
 10
-472.8239926911
 20
263.8605527558
 30
0.0
 11
-472.8239926911
 21
272.5949519231
 31
0.0
  0
LINE
  5
C5
330
1F
100
AcDbEntity
  8
0
  6
Continuous
 62
     7
370
    25
100
AcDbLine
 10
-486.8239926911
 20
272.5949519231
 30
0.0
 11
-486.8239926911
 21
263.6324416414
 31
0.0
  0
LINE
  5
C6
330
1F
100
AcDbEntity
  8
0
  6
Continuous
 62
     7
370
    25
100
AcDbLine
 10
-247.8239926911
 20
263.5449519231
 30
0.0
 11
-247.8239926911
 21
-71.7550480769
 31
0.0
  0
SPLINE
  5
C7
330
1F
100
AcDbEntity
  8
0
  6
Continuous
 62
     7
370
    25
100
AcDbSpline
210
0.0
220
0.0
230
1.0
 70
     8
 71
     3
 72
     9
 73
     5
 74
     0
 42
0.00000001
 43
0.00000001
 40
0.0
 40
0.0
 40
0.0
 40
0.0
 40
0.5638272818828358
 40
1.0
 40
1.0
 40
1.0
 40
1.0
 10
-265.6070452577517
 20
263.7970803695956
 30
0.0
 10
-266.0048768958995
 20
263.8179246304882
 30
0.0
 10
-266.7104682195745
 20
263.8548938612479
 30
0.0
 10
-266.7412127363586
 20
263.8570523571728
 30
0.0
 10
-266.7546226558116
 20
263.8579938342074
 30
0.0
  0
SPLINE
  5
C8
330
1F
100
AcDbEntity
  8
0
  6
Continuous
 62
     7
370
    25
100
AcDbSpline
210
0.0
220
0.0
230
1.0
 70
     8
 71
     3
 72
    15
 73
    11
 74
     0
 42
0.00000001
 43
0.00000001
 40
0.0
 40
0.0
 40
0.0
 40
0.0
 40
0.1202392803743326
 40
0.2528460918637474
 40
0.3854889820332976
 40
0.5181256467641535
 40
0.6506936871413983
 40
0.7832444757911791
 40
0.9159019336167077
 40
1.0
 40
1.0
 40
1.0
 40
1.0
 10
-252.8574443451336
 20
263.6334137788495
 30
0.0
 10
-252.9077696892912
 20
263.6321200809573
 30
0.0
 10
-253.0135967247851
 20
263.6293996184338
 30
0.0
 10
-254.1295514159158
 20
263.605369755473
 30
0.0
 10
-255.8532210868521
 20
263.5834066103698
 30
0.0
 10
-258.0425279470026
 20
263.5810337225573
 30
0.0
 10
-260.4295253903411
 20
263.6115252903301
 30
0.0
 10
-262.738852626901
 20
263.673533188577
 30
0.0
 10
-264.5115477732734
 20
263.7440048757269
 30
0.0
 10
-265.3008191628892
 20
263.7822440952539
 30
0.0
 10
-265.6070452577517
 20
263.7970803695956
 30
0.0
  0
LINE
  5
C9
330
1F
100
AcDbEntity
  8
0
  6
Continuous
 62
     7
370
    25
100
AcDbLine
 10
-491.8239926911
 20
263.5449519231
 30
0.0
 11
-491.8239926911
 21
-71.7550480769
 31
0.0
  0
SPLINE
  5
CA
330
1F
100
AcDbEntity
  8
0
  6
Continuous
 62
     7
370
    25
100
AcDbSpline
210
0.0
220
0.0
230
1.0
 70
     8
 71
     3
 72
     9
 73
     5
 74
     0
 42
0.00000001
 43
0.00000001
 40
0.0
 40
0.0
 40
0.0
 40
0.0
 40
0.5714442343233787
 40
1.0
 40
1.0
 40
1.0
 40
1.0
 10
-485.6367095893497
 20
263.6094312983365
 30
0.0
 10
-486.0305469870165
 20
263.6173271116364
 30
0.0
 10
-486.7197435420105
 20
263.6311444061781
 30
0.0
 10
-486.7406504474267
 20
263.6320429817736
 30
0.0
 10
-486.7496102222853
 20
263.6324280715259
 30
0.0
  0
SPLINE
  5
CB
330
1F
100
AcDbEntity
  8
0
  6
Continuous
 62
     7
370
    25
100
AcDbSpline
210
0.0
220
0.0
230
1.0
 70
     8
 71
     3
 72
    15
 73
    11
 74
     0
 42
0.00000001
 43
0.00000001
 40
0.0
 40
0.0
 40
0.0
 40
0.0
 40
0.1232047116266362
 40
0.2552569977934691
 40
0.3874743529828925
 40
0.519836766245812
 40
0.6521635619764241
 40
0.7843571690604931
 40
0.9165006430156984
 40
1.0
 40
1.0
 40
1.0
 40
1.0
 10
-472.8486897102005
 20
263.8605150036544
 30
0.0
 10
-472.9061126818857
 20
263.8571793567446
 30
0.0
 10
-473.0250822826683
 20
263.8502685235089
 30
0.0
 10
-474.1637436913466
 20
263.7889421335465
 30
0.0
 10
-475.8999429058487
 20
263.7107845996671
 30
0.0
 10
-478.0969444024495
 20
263.6375667725481
 30
0.0
 10
-480.4873529309891
 20
263.5910783955341
 30
0.0
 10
-482.7929760474607
 20
263.5787166774666
 30
0.0
 10
-484.554702239676
 20
263.5919684558328
 30
0.0
 10
-485.334689608226
 20
263.6045569068965
 30
0.0
 10
-485.6367095893497
 20
263.6094312983365
 30
0.0
  0
LINE
  5
CC
330
1F
100
AcDbEntity
  8
0
  6
Continuous
 62
     7
370
    25
100
AcDbLine
 10
-252.8239926911
 20
272.5949519231
 30
0.0
 11
-266.8239926911
 21
272.5949519231
 31
0.0
  0
LINE
  5
CD
330
1F
100
AcDbEntity
  8
0
  6
Continuous
 62
     7
370
    25
100
AcDbLine
 10
-472.8239926911
 20
272.5949519231
 30
0.0
 11
-486.8239926911
 21
272.5949519231
 31
0.0
  0
LINE
  5
CE
330
1F
100
AcDbEntity
  8
0
  6
Continuous
 62
     1
370
    25
100
AcDbLine
 10
-357.3239926911
 20
264.5449519231
 30
0.0
 11
-357.3239926911
 21
-72.7550480769
 31
0.0
  0
LINE
  5
CF
330
1F
100
AcDbEntity
  8
0
  6
Continuous
 62
     1
370
    25
100
AcDbLine
 10
-382.3239926911
 20
264.5449519231
 30
0.0
 11
-382.3239926911
 21
-72.7550480769
 31
0.0
  0
ARC
  5
D0
330
1F
100
AcDbEntity
  8
0
  6
Continuous
 62
     7
370
    25
100
AcDbCircle
 10
-5696.3679086539
 20
-371.282493018
 30
0.0
 40
5995.625000000037
100
AcDbArc
 50
0.0
 51
1.0464691644
  0
ARC
  5
D1
330
1F
100
AcDbEntity
  8
0
  6
Continuous
 62
     7
370
    25
100
AcDbCircle
 10
5957.5820913462
 20
-371.282493018
 30
0.0
 40
5995.625000000038
100
AcDbArc
 50
178.9535308356
 51
180.0
  0
LINE
  5
D2
330
1F
100
AcDbEntity
  8
0
  6
Continuous
 62
     7
370
    25
100
AcDbLine
 10
-38.0429086538
 20
-371.282493018
 30
0.0
 11
-38.0429086538
 21
-396.282493018
 31
0.0
  0
LINE
  5
D3
330
1F
100
AcDbEntity
  8
0
  6
Continuous
 62
     7
370
    25
100
AcDbLine
 10
299.2570913462
 20
-396.282493018
 30
0.0
 11
299.2570913462
 21
-371.282493018
 31
0.0
  0
ARC
  5
D4
330
1F
100
AcDbEntity
  8
0
  6
Continuous
 62
     7
370
    25
100
AcDbCircle
 10
-5696.3679086539
 20
-396.282493018
 30
0.0
 40
5995.625000000038
100
AcDbArc
 50
358.9535308356
 51
0.0
  0
ARC
  5
D5
330
1F
100
AcDbEntity
  8
0
  6
Continuous
 62
     7
370
    25
100
AcDbCircle
 10
5957.5820913462
 20
-396.282493018
 30
0.0
 40
5995.625000000038
100
AcDbArc
 50
180.0
 51
181.0464691644
  0
CIRCLE
  5
D6
330
1F
100
AcDbEntity
  8
0
  6
Continuous
 62
     7
370
    25
100
AcDbCircle
 10
130.6070913462
 20
-273.782493018
 30
0.0
 40
5.0
  0
CIRCLE
  5
D7
330
1F
100
AcDbEntity
  8
0
  6
Continuous
 62
     7
370
    25
100
AcDbCircle
 10
130.6070913462
 20
-273.782493018
 30
0.0
 40
7.000000000000057
  0
CIRCLE
  5
D8
330
1F
100
AcDbEntity
  8
0
  6
Continuous
 62
     7
370
    25
100
AcDbCircle
 10
130.6070913462
 20
-493.782493018
 30
0.0
 40
7.0
  0
CIRCLE
  5
D9
330
1F
100
AcDbEntity
  8
0
  6
Continuous
 62
     7
370
    25
100
AcDbCircle
 10
130.6070913462
 20
-493.782493018
 30
0.0
 40
5.0
  0
LINE
  5
DA
330
1F
100
AcDbEntity
  8
0
  6
Continuous
 62
     7
370
    25
100
AcDbLine
 10
-37.0429086538
 20
-261.782493018
 30
0.0
 11
298.2570913462
 21
-261.782493018
 31
0.0
  0
LINE
  5
DB
330
1F
100
AcDbEntity
  8
0
  6
Continuous
 62
     7
370
    25
100
AcDbLine
 10
-37.0429086538
 20
-505.782493018
 30
0.0
 11
298.2570913462
 21
-505.782493018
 31
0.0
  0
LINE
  5
DC
330
1F
100
AcDbEntity
  8
0
  6
Continuous
 62
     1
370
    25
100
AcDbLine
 10
-38.0429086538
 20
-371.282493018
 30
0.0
 11
299.2570913462
 21
-371.282493018
 31
0.0
  0
LINE
  5
DD
330
1F
100
AcDbEntity
  8
0
  6
Continuous
 62
     1
370
    25
100
AcDbLine
 10
-38.0429086538
 20
-396.282493018
 30
0.0
 11
299.2570913462
 21
-396.282493018
 31
0.0
  0
INSERT
  5
E9
330
1F
100
AcDbEntity
  8
FORMAT
 62
     7
100
AcDbBlockReference
  2
SW_CENTERMARKSYMBOL_1
 10
130.6070913462
 20
-273.782493018
 30
0.0
  0
INSERT
  5
F5
330
1F
100
AcDbEntity
  8
FORMAT
 62
     7
100
AcDbBlockReference
  2
SW_CENTERMARKSYMBOL_2
 10
130.6070913462
 20
-493.782493018
 30
0.0
  0
SPLINE
  5
F6
330
1F
100
AcDbEntity
  8
0
  6
Continuous
 62
     7
370
    25
100
AcDbSpline
210
0.0
220
0.0
230
1.0
 70
     8
 71
     3
 72
    10
 73
     6
 74
     0
 42
0.00000001
 43
0.00000001
 40
0.0
 40
0.0
 40
0.0
 40
0.0
 40
0.2152076863474963
 40
0.6098140740596539
 40
1.0
 40
1.0
 40
1.0
 40
1.0
 10
532.7387538806935
 20
-203.4073173982948
 30
0.0
 10
527.1029832980337
 20
-206.6542492704154
 30
0.0
 10
511.1334225550776
 20
-215.8547791712612
 30
0.0
 10
485.1097350552413
 20
-231.2241809646493
 30
0.0
 10
464.8078923963812
 20
-243.4828157598469
 30
0.0
 10
454.7141476713913
 20
-249.5776088472913
 30
0.0
  0
SPLINE
  5
F7
330
1F
100
AcDbEntity
  8
0
  6
Continuous
 62
     7
370
    25
100
AcDbSpline
210
0.0
220
0.0
230
1.0
 70
     8
 71
     3
 72
    11
 73
     7
 74
     0
 42
0.00000001
 43
0.00000001
 40
0.0
 40
0.0
 40
0.0
 40
0.0
 40
0.031179931581078
 40
0.4258751960549199
 40
0.8205565949616902
 40
1.0
 40
1.0
 40
1.0
 40
1.0
 10
622.3310674160729
 20
-539.9273846675509
 30
0.0
 10
623.1591458614363
 20
-539.4780522582919
 30
0.0
 10
634.4695642102049
 20
-533.3407864535423
 30
0.0
 10
656.117531602741
 20
-521.243067064376
 30
0.0
 10
681.631091546054
 20
-506.8777102336779
 30
0.0
 10
696.6436919684301
 20
-498.1771340877223
 30
0.0
 10
701.3358984708483
 20
-495.4577584420488
 30
0.0
  0
LINE
  5
F8
330
1F
100
AcDbEntity
  8
0
  6
Continuous
 62
     7
370
    25
100
AcDbLine
 10
550.396844972
 20
-193.1682979643
 30
0.0
 11
532.7191754424
 21
-203.3733993621
 31
0.0
  0
LINE
  5
F9
330
1F
100
AcDbEntity
  8
0
  6
Continuous
 62
     7
370
    25
100
AcDbLine
 10
701.3554697014
 20
-495.4916806431
 30
0.0
 11
719.0331392311
 21
-485.2865792453
 31
0.0
  0
SPLINE
  5
FA
330
1F
100
AcDbEntity
  8
0
  6
Continuous
 62
     7
370
    25
100
AcDbSpline
210
0.0
220
0.0
230
1.0
 70
     8
 71
     3
 72
    11
 73
     7
 74
     0
 42
0.00000001
 43
0.00000001
 40
0.0
 40
0.0
 40
0.0
 40
0.0
 40
0.0311933227741673
 40
0.4258831691078147
 40
0.8205591500639262
 40
1.0
 40
1.0
 40
1.0
 40
1.0
 10
629.4223481286589
 20
-148.7319961514844
 30
0.0
 10
628.5939026123987
 20
-149.1815276087063
 30
0.0
 10
617.2831165043457
 20
-155.3189911614474
 30
0.0
 10
595.6347824189505
 20
-167.4169103119283
 30
0.0
 10
570.1212256035224
 20
-181.7822671231144
 30
0.0
 10
555.1086275286633
 20
-190.4828417775128
 30
0.0
 10
550.4164234103569
 20
-193.2022160005108
 30
0.0
  0
SPLINE
  5
FB
330
1F
100
AcDbEntity
  8
0
  6
Continuous
 62
     7
370
    25
100
AcDbSpline
210
0.0
220
0.0
230
1.0
 70
     8
 71
     3
 72
    10
 73
     6
 74
     0
 42
0.00000001
 43
0.00000001
 40
0.0
 40
0.0
 40
0.0
 40
0.0
 40
0.2152099022880168
 40
0.6098205215169923
 40
1.0
 40
1.0
 40
1.0
 40
1.0
 10
719.0135680005109
 20
-485.2526570442644
 30
0.0
 10
724.6493361632032
 20
-482.005726531951
 30
0.0
 10
740.6188944576093
 20
-472.8051979442915
 30
0.0
 10
766.642303397004
 20
-457.4359617691734
 30
0.0
 10
786.9438712825837
 20
-445.1774934494975
 30
0.0
 10
797.0373411072882
 20
-439.0828666315545
 30
0.0
  0
LINE
  5
FC
330
1F
100
AcDbEntity
  8
0
  6
Continuous
 62
     7
370
    25
100
AcDbLine
 10
555.0944114062
 20
-252.1664074912
 30
0.0
 11
555.0944114062
 21
-244.9496739937
 31
0.0
  0
LINE
  5
FD
330
1F
100
AcDbEntity
  8
0
  6
Continuous
 62
     7
370
    25
100
AcDbLine
 10
541.0944114062
 20
-244.9496739937
 30
0.0
 11
541.0944114062
 21
-252.2967942083
 31
0.0
  0
LINE
  5
FE
330
1F
100
AcDbEntity
  8
0
  6
Continuous
 62
     7
370
    25
100
AcDbLine
 10
710.6579032673
 20
-162.4913252662
 30
0.0
 11
710.6579032673
 21
-155.1447816932
 31
0.0
  0
LINE
  5
FF
330
1F
100
AcDbEntity
  8
0
  6
Continuous
 62
     7
370
    25
100
AcDbLine
 10
696.6579032673
 20
-155.1447816932
 30
0.0
 11
696.6579032673
 21
-162.3608758877
 31
0.0
  0
LWPOLYLINE
  5
100
330
1F
100
AcDbEntity
  8
0
  6
Continuous
 62
     7
370
    25
100
AcDbPolyline
 90
      138
 70
   128
 43
0.0
 10
421.062678166
 20
-325.6954741513
 10
421.1873306799
 20
-319.4913541441
 10
421.5610260753
 20
-313.4442022265
 10
422.1829784651
 20
-307.566735653
 10
423.0518798736
 20
-301.8713148269
 10
424.1659029879
 20
-296.3699173066
 10
425.5227049999
 20
-291.0741126165
 10
427.119432534
 20
-285.9950379159
 10
428.9527276474
 20
-281.1433745779
 10
431.018734892
 20
-276.5293257256
 10
433.3131094226
 20
-272.1625947754
 10
435.8310261339
 20
-268.0523650302
 10
438.5671898079
 20
-264.207280367
 10
441.5158462501
 20
-260.6354270586
 10
444.6707943902
 20
-257.3443167677
 10
448.0253993233
 20
-254.3408707505
 10
451.5726062631
 20
-251.6314053004
 10
455.3049553784
 20
-249.2216184655
 10
459.2145974812
 20
-247.1165780647
 10
463.2933105334
 20
-245.3207110308
 10
467.5325169381
 20
-243.8377940999
 10
471.9233015786
 20
-242.6709458695
 10
476.4564305666
 20
-241.8226202393
 10
481.1223706615
 20
-241.2946012514
 10
485.9113093188
 20
-241.0879993379
 10
490.8131753263
 20
-241.2032489858
 10
495.8176599838
 20
-241.6401078233
 10
500.9142387822
 20
-242.3976571296
 10
506.0921935373
 20
-243.4743037666
 10
511.34063493
 20
-244.8677835298
 10
516.6485254065
 20
-246.5751659097
 10
522.0047023908
 20
-248.5928602545
 10
527.3979017596
 20
-250.9166233218
 10
532.8167815309
 20
-253.5415682018
 10
538.2499457165
 20
-256.4621745946
 10
543.6859682879
 20
-259.6723004198
 10
549.1134172051
 20
-263.1651947328
 10
554.5208784589
 20
-266.9335119228
 10
559.8969800744
 20
-270.9693271602
 10
565.2304160264
 20
-275.2641530629
 10
570.5099700165
 20
-279.8089575456
 10
575.7245390606
 20
-284.5941828137
 10
580.8631568391
 20
-289.6097654643
 10
585.9150167591
 20
-294.8451576492
 10
590.8694946808
 20
-300.2893492576
 10
595.7161712602
 20
-305.9308910698
 10
600.4448538614
 20
-311.7579188361
 10
605.0455979913
 20
-317.7581782265
 10
609.5087282138
 20
-323.9190506025
 10
613.8248584967
 20
-330.2275795538
 10
617.9849119511
 20
-336.6704981462
 10
621.98013992
 20
-343.2342568219
 10
625.8021403769
 20
-349.9050518945
 10
629.4428755956
 20
-356.6688545786
 10
632.8946890535
 20
-363.5114404921
 10
636.1503215333
 20
-370.4184195707
 10
639.2029263894
 20
-377.3752663302
 10
642.0460839463
 20
-384.3673504139
 10
644.6738149997
 20
-391.3799673605
 10
647.0805933904
 20
-398.3983695277
 10
649.261357626
 20
-405.4077971069
 10
651.2115215255
 20
-412.3935091631
 10
652.926983864
 20
-419.3408146355
 10
654.4041369976
 20
-426.2351032329
 10
655.6398744503
 20
-433.0618761593
 10
656.6315974471
 20
-439.8067766054
 10
657.3772203791
 20
-446.4556199408
 10
657.8751751898
 20
-452.994423545
 10
658.1244146723
 20
-459.4094362123
 10
658.1244146723
 20
-465.6871670718
 10
657.8751751898
 20
-471.8144139578
 10
657.3772203791
 20
-477.7782911753
 10
656.6315974471
 20
-483.5662565977
 10
655.6398744503
 20
-489.1661380442
 10
654.4041369976
 20
-494.566158877
 10
652.926983864
 20
-499.7549627685
 10
651.2115215255
 20
-504.7216375838
 10
649.261357626
 20
-509.4557383285
 10
647.0805933904
 20
-513.9473091154
 10
644.6738149997
 20
-518.1869041013
 10
642.0460839463
 20
-522.1656073523
 10
639.2029263894
 20
-525.8750515937
 10
636.1503215333
 20
-529.3074358067
 10
632.8946890535
 20
-532.4555416339
 10
629.4428755956
 20
-535.3127485601
 10
625.8021403769
 20
-537.8730478348
 10
621.98013992
 20
-540.1310551087
 10
617.9849119511
 20
-542.0820217576
 10
613.8248584967
 20
-543.7218448683
 10
609.5087282138
 20
-545.0470758675
 10
605.0455979913
 20
-546.0549277737
 10
600.4448538614
 20
-546.7432810587
 10
595.7161712602
 20
-547.110688105
 10
590.8694946808
 20
-547.1563762497
 10
585.9150167591
 20
-546.88024941
 10
580.8631568391
 20
-546.282888285
 10
575.7245390606
 20
-545.3655491344
 10
570.5099700165
 20
-544.1301611365
 10
565.2304160264
 20
-542.5793223316
 10
559.8969800744
 20
-540.7162941578
 10
554.5208784589
 20
-538.5449945921
 10
549.1134172051
 20
-536.0699899113
 10
543.6859682879
 20
-533.2964850885
 10
538.2499457165
 20
-530.2303128476
 10
532.8167815309
 20
-526.8779213962
 10
527.3979017596
 20
-523.2463608657
 10
522.0047023908
 20
-519.3432684841
 10
516.6485254065
 20
-515.1768525154
 10
511.34063493
 20
-510.7558749969
 10
506.0921935373
 20
-506.0896333129
 10
500.9142387822
 20
-501.1879406422
 10
495.8176599838
 20
-496.0611053204
 10
490.8131753263
 20
-490.7199091618
 10
485.9113093188
 20
-485.1755847849
 10
481.1223706615
 20
-479.4397919897
 10
476.4564305666
 20
-473.5245932376
 10
471.9233015786
 20
-467.4424282833
 10
467.5325169381
 20
-461.2060880141
 10
463.2933105334
 20
-454.8286875504
 10
459.2145974812
 20
-448.3236386641
 10
455.3049553784
 20
-441.7046215742
 10
451.5726062631
 20
-434.9855561763
 10
448.0253993233
 20
-428.1805727691
 10
444.6707943902
 20
-421.3039823383
 10
441.5158462501
 20
-414.3702464604
 10
438.5671898079
 20
-407.3939468894
 10
435.8310261339
 20
-400.3897548917
 10
433.3131094226
 20
-393.3724003915
 10
431.018734892
 20
-386.3566409945
 10
428.9527276474
 20
-379.3572309514
 10
427.119432534
 20
-372.3888901301
 10
425.5227049999
 20
-365.4662730596
 10
424.1659029879
 20
-358.6039381109
 10
423.0518798736
 20
-351.816316881
 10
422.1829784651
 20
-345.1176838426
 10
421.5610260753
 20
-338.5221263248
 10
421.1873306799
 20
-332.0435148876
 10
421.062678166
 20
-325.6954741513
  0
SPLINE
  5
101
330
1F
100
AcDbEntity
  8
0
  6
Continuous
 62
     7
370
    25
100
AcDbSpline
210
0.0
220
0.0
230
1.0
 70
     8
 71
     3
 72
    12
 73
     8
 74
     0
 42
0.00000001
 43
0.00000001
 40
0.0
 40
0.0
 40
0.0
 40
0.0
 40
0.2451214472667246
 40
0.4902449206077388
 40
0.7353220156049741
 40
0.9804233988762892
 40
1.0
 40
1.0
 40
1.0
 40
1.0
 10
546.7421268327935
 20
-256.2516102598511
 30
0.0
 10
545.9860354773745
 20
-256.1139815310598
 30
0.0
 10
544.4738465169925
 20
-255.8387229358941
 30
0.0
 10
542.6337371531206
 20
-254.91684705481
 30
0.0
 10
541.4813768998399
 20
-253.7477313348361
 30
0.0
 10
540.9850670773471
 20
-252.8136317135252
 30
0.0
 10
541.1139381915344
 20
-252.3346147371634
 30
0.0
 10
541.1234699945085
 20
-252.2991848002945
 30
0.0
  0
SPLINE
  5
102
330
1F
100
AcDbEntity
  8
0
  6
Continuous
 62
     7
370
    25
100
AcDbSpline
210
0.0
220
0.0
230
1.0
 70
     8
 71
     3
 72
    13
 73
     9
 74
     0
 42
0.00000001
 43
0.00000001
 40
0.0
 40
0.0
 40
0.0
 40
0.0
 40
0.1152737190929374
 40
0.3064567433275386
 40
0.4975883219336229
 40
0.6885275241118975
 40
0.8793943144705759
 40
1.0
 40
1.0
 40
1.0
 40
1.0
 10
554.9994778393519
 20
-252.1645009855031
 30
0.0
 10
555.0087356741744
 20
-252.4514524819028
 30
0.0
 10
555.0333477534266
 20
-253.2143169211834
 30
0.0
 10
554.1889310174937
 20
-254.3838145738531
 30
0.0
 10
552.6544743864245
 20
-255.4725969535078
 30
0.0
 10
550.5756584748439
 20
-256.168945210118
 30
0.0
 10
548.5052256365659
 20
-256.4002006843601
 30
0.0
 10
547.2342594117404
 20
-256.2930862047409
 30
0.0
 10
546.7421268327935
 20
-256.2516102598511
 30
0.0
  0
LWPOLYLINE
  5
103
330
1F
100
AcDbEntity
  8
0
  6
Continuous
 62
     7
370
    25
100
AcDbPolyline
 90
      126
 70
   128
 43
0.0
 10
440.1545612581
 20
-336.7169836609
 10
440.2801766942
 20
-331.0191175697
 10
440.656705687
 20
-325.4806772782
 10
441.2831970915
 20
-320.1156533671
 10
442.1580683362
 20
-314.9375983526
 10
443.2791094203
 20
-309.959592451
 10
444.6434884967
 20
-305.1942105372
 10
446.2477590256
 20
-300.6534903795
 10
448.0878684802
 20
-296.3489022311
 10
450.1591685845
 20
-292.2913198553
 10
452.4564270545
 20
-288.4909930572
 10
454.9738408161
 20
-284.9575217923
 10
457.7050506636
 20
-281.6998319156
 10
460.6431573238
 20
-278.7261526344
 10
463.7807388844
 20
-276.0439957207
 10
467.1098695421
 20
-273.6601365356
 10
470.6221396238
 20
-271.5805969144
 10
474.3086768305
 20
-269.8106299545
 10
478.1601686493
 20
-268.3547067462
 10
482.1668858775
 20
-267.2165050778
 10
486.3187071998
 20
-266.3989001455
 10
490.6051447552
 20
-265.9039572903
 10
495.0153706303
 20
-265.7329267809
 10
499.5382442118
 20
-265.8862406551
 10
504.1623403287
 20
-266.3635116288
 10
508.8759781126
 20
-267.1635340741
 10
513.6672505056
 20
-268.2842870649
 10
518.5240543377
 20
-269.7229394818
 10
523.4341209009
 20
-271.475857164
 10
528.385046941
 20
-273.5386120893
 10
533.3643259891
 20
-275.9059935597
 10
538.3593799542
 20
-278.5720213641
 10
543.3575908964
 20
-281.5299608851
 10
548.3463329012
 20
-284.7723401105
 10
553.3130039732
 20
-288.2909685091
 10
558.2450578704
 20
-292.0769577202
 10
563.1300357964
 20
-296.1207440064
 10
567.9555978732
 20
-300.4121124127
 10
572.709554312
 20
-304.94022257
 10
577.3798962064
 20
-309.6936360791
 10
581.9548258674
 20
-314.6603454048
 10
586.4227866256
 20
-319.8278042085
 10
590.7724920245
 20
-325.1829590406
 10
594.9929543305
 20
-330.7122823153
 10
599.0735122897
 20
-336.4018064822
 10
603.0038580586
 20
-342.2371593094
 10
606.7740632425
 20
-348.2036001892
 10
610.3746039761
 20
-354.2860573742
 10
613.7963849808
 20
-360.4691660496
 10
617.030762541
 20
-366.7373071463
 10
620.0695663383
 20
-373.0746467959
 10
622.9051200904
 20
-379.4651763284
 10
625.5302609425
 20
-385.8927527116
 10
627.9383575611
 20
-392.3411393297
 10
630.123326885
 20
-398.7940469985
 10
632.0796494921
 20
-405.2351751132
 10
633.8023835417
 20
-411.6482528252
 10
635.2871772581
 20
-418.0170801434
 10
636.5302799235
 20
-424.3255688576
 10
637.5285513527
 20
-430.5577831775
 10
638.2794698254
 20
-436.697979989
 10
638.7811384564
 20
-442.7306486221
 10
639.0322899872
 20
-448.6405500321
 10
639.0322899872
 20
-454.4127552953
 10
638.7811384564
 20
-460.0326833202
 10
638.2794698254
 20
-465.4861376808
 10
637.5285513527
 20
-470.7593424782
 10
636.5302799235
 20
-475.8389771394
 10
635.2871772581
 20
-480.7122100663
 10
633.8023835417
 20
-485.3667310496
 10
632.0796494921
 20
-489.7907823655
 10
630.123326885
 20
-493.9731884762
 10
627.9383575611
 20
-497.9033842611
 10
625.5302609425
 20
-501.5714417044
 10
622.9051200904
 20
-504.9680949748
 10
620.0695663383
 20
-508.0847638312
 10
617.030762541
 20
-510.9135752976
 10
613.7963849808
 20
-513.4473835508
 10
610.3746039761
 20
-515.6797879712
 10
606.7740632425
 20
-517.6051493115
 10
603.0038580586
 20
-519.2186039418
 10
599.0735122897
 20
-520.5160761358
 10
594.9929543305
 20
-521.4942883661
 10
590.7724920244
 20
-522.1507695836
 10
586.4227866256
 20
-522.4838614599
 10
581.9548258674
 20
-522.492722576
 10
577.3798962064
 20
-522.1773305478
 10
572.709554312
 20
-521.5384820831
 10
567.9555978732
 20
-520.5777909685
 10
563.1300357964
 20
-519.2976839932
 10
558.2450578704
 20
-517.7013948184
 10
553.3130039732
 20
-515.7929558091
 10
548.3463329012
 20
-513.577187848
 10
543.3575908964
 20
-511.0596881572
 10
538.3593799542
 20
-508.2468161594
 10
533.3643259891
 20
-505.1456774134
 10
528.385046941
 20
-501.7641056648
 10
523.4341209009
 20
-498.1106430573
 10
518.5240543377
 20
-494.1945185545
 10
513.6672505056
 20
-490.0256246269
 10
508.8759781126
 20
-485.6144922622
 10
504.1623403287
 20
-480.9722643637
 10
499.5382442118
 20
-476.110667602
 10
495.0153706303
 20
-471.0419827923
 10
490.6051447552
 20
-465.7790138724
 10
486.3187071998
 20
-460.3350555586
 10
482.1668858775
 20
-454.723859762
 10
478.1601686493
 20
-448.9596008502
 10
474.3086768305
 20
-443.0568398415
 10
470.6221396238
 20
-437.0304876225
 10
467.1098695421
 20
-430.8957672819
 10
463.7807388844
 20
-424.6681756557
 10
460.6431573238
 20
-418.3634441808
 10
457.7050506636
 20
-411.9974991561
 10
454.9738408161
 20
-405.5864215112
 10
452.4564270545
 20
-399.1464061847
 10
450.1591685845
 20
-392.6937212141
 10
448.0878684802
 20
-386.2446666418
 10
446.2477590256
 20
-379.8155333393
 10
444.6434884967
 20
-373.4225618553
 10
443.2791094203
 20
-367.0819013906
 10
442.1580683362
 20
-360.8095690038
 10
441.2831970915
 20
-354.6214091508
 10
440.656705687
 20
-348.5330536606
 10
440.2801766942
 20
-342.5598822475
 10
440.1545612581
 20
-336.7169836609
  0
LWPOLYLINE
  5
104
330
1F
100
AcDbEntity
  8
0
  6
Continuous
 62
     7
370
    25
100
AcDbPolyline
 90
       17
 70
   128
 43
0.0
 10
629.4151035421
 20
-148.7228551352
 10
631.7486520907
 20
-147.5147884224
 10
635.8273651429
 20
-145.7189213884
 10
640.0665715476
 20
-144.2360044576
 10
644.4573561881
 20
-143.0691562271
 10
648.9904851761
 20
-142.2208305969
 10
653.656425271
 20
-141.692811609
 10
658.4453639283
 20
-141.4862096955
 10
663.3472299359
 20
-141.6014593434
 10
668.3517145933
 20
-142.0383181809
 10
673.4482933917
 20
-142.7958674872
 10
678.6262481469
 20
-143.8725141242
 10
683.8746895395
 20
-145.2659938875
 10
689.182580016
 20
-146.9733762673
 10
694.5387570003
 20
-148.9910706121
 10
699.9319563691
 20
-151.3148336794
 10
700.4497488355
 20
-151.5531545101
  0
LWPOLYLINE
  5
105
330
1F
100
AcDbEntity
  8
0
  6
Continuous
 62
     7
370
    25
100
AcDbPolyline
 90
       54
 70
   128
 43
0.0
 10
710.6579032673
 20
-156.7893377437
 10
710.7840003261
 20
-156.8603849522
 10
716.2200228974
 20
-160.0705107774
 10
721.6474718146
 20
-163.5634050904
 10
727.0549330684
 20
-167.3317222804
 10
732.4310346839
 20
-171.3675375178
 10
737.764470636
 20
-175.6623634206
 10
743.044024626
 20
-180.2071679032
 10
748.2585936701
 20
-184.9923931713
 10
753.3972114486
 20
-190.0079758219
 10
758.4490713686
 20
-195.2433680069
 10
763.4035492903
 20
-200.6875596152
 10
768.2502258697
 20
-206.3291014275
 10
772.9789084709
 20
-212.1561291937
 10
777.5796526009
 20
-218.1563885841
 10
782.0427828234
 20
-224.3172609601
 10
786.3589131063
 20
-230.6257899114
 10
790.5189665606
 20
-237.0687085038
 10
794.5141945295
 20
-243.6324671795
 10
798.3361949864
 20
-250.3032622522
 10
801.9769302051
 20
-257.0670649362
 10
805.428743663
 20
-263.9096508498
 10
808.6843761428
 20
-270.8166299283
 10
811.7369809989
 20
-277.7734766878
 10
814.5801385559
 20
-284.7655607715
 10
817.2078696093
 20
-291.7781777181
 10
819.6146479999
 20
-298.7965798853
 10
821.7954122355
 20
-305.8060074645
 10
823.745576135
 20
-312.7917195207
 10
825.4610384736
 20
-319.7390249931
 10
826.9381916072
 20
-326.6333135905
 10
828.1739290599
 20
-333.4600865169
 10
829.1656520566
 20
-340.204986963
 10
829.9112749886
 20
-346.8538302985
 10
830.4092297993
 20
-353.3926339026
 10
830.6584692818
 20
-359.80764657
 10
830.6584692818
 20
-366.0853774294
 10
830.4092297993
 20
-372.2126243155
 10
829.9112749886
 20
-378.1765015329
 10
829.1656520566
 20
-383.9644669554
 10
828.1739290599
 20
-389.5643484018
 10
826.9381916072
 20
-394.9643692346
 10
825.4610384736
 20
-400.1531731262
 10
823.745576135
 20
-405.1198479414
 10
821.7954122355
 20
-409.8539486861
 10
819.6146479999
 20
-414.345519473
 10
817.2078696093
 20
-418.5851144589
 10
814.5801385559
 20
-422.56381771
 10
811.7369809989
 20
-426.2732619513
 10
808.6843761428
 20
-429.7056461643
 10
805.428743663
 20
-432.8537519916
 10
801.9769302051
 20
-435.7109589178
 10
798.3361949864
 20
-438.2712581924
 10
797.0367933644
 20
-439.0852223001
  0
SPLINE
  5
106
330
1F
100
AcDbEntity
  8
0
  6
Continuous
 62
     7
370
    25
100
AcDbSpline
210
0.0
220
0.0
230
1.0
 70
     8
 71
     3
 72
    12
 73
     8
 74
     0
 42
0.00000001
 43
0.00000001
 40
0.0
 40
0.0
 40
0.0
 40
0.0
 40
0.2435961590405518
 40
0.4872016662342383
 40
0.7306100388045408
 40
0.9740992700503484
 40
1.0
 40
1.0
 40
1.0
 40
1.0
 10
702.3576013392301
 20
-166.2992855758382
 30
0.0
 10
701.6004055082309
 20
-166.1550432202932
 30
0.0
 10
700.0859847883745
 20
-165.8665529738138
 30
0.0
 10
698.2355065420392
 20
-164.9483218546383
 30
0.0
 10
697.0644372907615
 20
-163.8016782861205
 30
0.0
 10
696.556221781061
 20
-162.8812095995386
 30
0.0
 10
696.6832380262534
 20
-162.4091527152298
 30
0.0
 10
696.6954501125961
 20
-162.3637663993215
 30
0.0
  0
SPLINE
  5
107
330
1F
100
AcDbEntity
  8
0
  6
Continuous
 62
     7
370
    25
100
AcDbSpline
210
0.0
220
0.0
230
1.0
 70
     8
 71
     3
 72
    13
 73
     9
 74
     0
 42
0.00000001
 43
0.00000001
 40
0.0
 40
0.0
 40
0.0
 40
0.0
 40
0.1113127405086838
 40
0.3031278758625625
 40
0.4948437687505424
 40
0.686534712711728
 40
0.878379918410614
 40
0.9999999999999999
 40
0.9999999999999999
 40
0.9999999999999999
 40
0.9999999999999999
 10
710.5611282478117
 20
-162.4898186860543
 30
0.0
 10
710.5730614030741
 20
-162.7573697172751
 30
0.0
 10
710.6055578809301
 20
-163.4859671393504
 30
0.0
 10
709.7801074662682
 20
-164.5967736757795
 30
0.0
 10
708.2625703118423
 20
-165.6295089425545
 30
0.0
 10
706.1946339954538
 20
-166.2744863658997
 30
0.0
 10
704.1265470837967
 20
-166.4693148276574
 30
0.0
 10
702.852077460862
 20
-166.3468141138172
 30
0.0
 10
702.3576013392301
 20
-166.2992855758381
 30
0.0
  0
LWPOLYLINE
  5
108
330
1F
100
AcDbEntity
  8
0
  6
Continuous
 62
     7
370
    25
100
AcDbPolyline
 90
       29
 70
   128
 43
0.0
 10
553.0441588745
 20
-242.0922456023
 10
554.0214808008
 20
-242.7997249323
 10
554.7015947184
 20
-243.6150116855
 10
555.0503968755
 20
-244.49722398
 10
555.0503968755
 20
-245.4021240074
 10
554.7015947184
 20
-246.2843363019
 10
554.0214808008
 20
-247.0996230552
 10
553.0441588745
 20
-247.8071023851
 10
551.8186359418
 20
-248.3712983239
 10
550.4063648399
 20
-248.7639197313
 10
548.8781627389
 20
-248.9652789306
 10
547.3106600735
 20
-248.9652789306
 10
545.7824579725
 20
-248.7639197313
 10
544.3701868706
 20
-248.3712983239
 10
543.1446639379
 20
-247.8071023851
 10
542.1673420116
 20
-247.0996230552
 10
541.4872280941
 20
-246.2843363019
 10
541.138425937
 20
-245.4021240074
 10
541.138425937
 20
-244.49722398
 10
541.4872280941
 20
-243.6150116855
 10
542.1673420116
 20
-242.7997249323
 10
543.1446639379
 20
-242.0922456023
 10
544.3701868706
 20
-241.5280496635
 10
545.7824579725
 20
-241.1354282561
 10
547.3106600735
 20
-240.9340690569
 10
548.8781627389
 20
-240.9340690569
 10
550.4063648399
 20
-241.1354282561
 10
551.8186359418
 20
-241.5280496635
 10
553.0441588745
 20
-242.0922456023
  0
LWPOLYLINE
  5
109
330
1F
100
AcDbEntity
  8
0
  6
Continuous
 62
     7
370
    25
100
AcDbPolyline
 90
       24
 70
   128
 43
0.0
 10
551.6299453121
 20
-242.9086537142
 10
552.4527137564
 20
-243.535000964
 10
552.9522468532
 20
-244.2662680407
 10
553.091496518
 20
-245.0482202106
 10
552.8601352403
 20
-245.8228636585
 10
552.2753220275
 20
-246.5327466234
 10
551.3804298003
 20
-247.1252203335
 10
550.2418286214
 20
-247.556343724
 10
548.9439633314
 20
-247.7941423454
 10
547.5830906615
 20
-247.8209797617
 10
546.2601403121
 20
-247.6348655645
 10
545.0732294586
 20
-247.2496029924
 10
544.1103858491
 20
-246.693765208
 10
543.4430191895
 20
-246.0085761569
 10
543.1206250119
 20
-245.2448531766
 10
543.1671138176
 20
-244.4592381065
 10
543.5790377446
 20
-243.7099964227
 10
544.3258462796
 20
-243.0526959531
 10
545.35215205
 20
-242.5360856667
 10
546.5818386518
 20
-242.1984801851
 10
547.9237058553
 20
-242.0649181624
 10
549.2782335085
 20
-242.1453052828
 10
550.5449624921
 20
-242.4336796014
 10
551.6299453121
 20
-242.9086537142
  0
LWPOLYLINE
  5
10A
330
1F
100
AcDbEntity
  8
0
  6
Continuous
 62
     7
370
    25
100
AcDbPolyline
 90
       29
 70
   128
 43
0.0
 10
698.7081557989
 20
-158.0022100846
 10
697.7308338727
 20
-157.2947307547
 10
697.0507199551
 20
-156.4794440014
 10
696.701917798
 20
-155.5972317069
 10
696.701917798
 20
-154.6923316795
 10
697.0507199551
 20
-153.810119385
 10
697.7308338727
 20
-152.9948326318
 10
698.7081557989
 20
-152.2873533018
 10
699.9336787316
 20
-151.723157363
 10
701.3459498336
 20
-151.3305359556
 10
702.8741519345
 20
-151.1291767564
 10
704.4416546
 20
-151.1291767564
 10
705.9698567009
 20
-151.3305359556
 10
707.3821278029
 20
-151.723157363
 10
708.6076507356
 20
-152.2873533018
 10
709.5849726618
 20
-152.9948326318
 10
710.2650865794
 20
-153.810119385
 10
710.6138887365
 20
-154.6923316795
 10
710.6138887365
 20
-155.5972317069
 10
710.2650865794
 20
-156.4794440014
 10
709.5849726618
 20
-157.2947307547
 10
708.6076507356
 20
-158.0022100846
 10
707.3821278029
 20
-158.5664060234
 10
705.9698567009
 20
-158.9590274308
 10
704.4416546
 20
-159.1603866301
 10
702.8741519345
 20
-159.1603866301
 10
701.3459498336
 20
-158.9590274308
 10
699.9336787316
 20
-158.5664060234
 10
698.7081557989
 20
-158.0022100846
  0
LWPOLYLINE
  5
10B
330
1F
100
AcDbEntity
  8
0
  6
Continuous
 62
     7
370
    25
100
AcDbPolyline
 90
       24
 70
   128
 43
0.0
 10
700.1223693613
 20
-157.1858019728
 10
699.2996009171
 20
-156.5594547229
 10
698.8000678203
 20
-155.8281876462
 10
698.6608181554
 20
-155.0462354763
 10
698.8921794332
 20
-154.2715920285
 10
699.476992646
 20
-153.5617090635
 10
700.3718848732
 20
-152.9692353534
 10
701.5104860521
 20
-152.5381119629
 10
702.8083513421
 20
-152.3003133415
 10
704.169224012
 20
-152.2734759253
 10
705.4921743613
 20
-152.4595901224
 10
706.6790852149
 20
-152.8448526945
 10
707.6419288243
 20
-153.4006904789
 10
708.3092954839
 20
-154.08587953
 10
708.6316896615
 20
-154.8496025104
 10
708.5852008558
 20
-155.6352175804
 10
708.1732769289
 20
-156.3844592642
 10
707.4264683939
 20
-157.0417597338
 10
706.4001626235
 20
-157.5583700202
 10
705.1704760217
 20
-157.8959755018
 10
703.8286088182
 20
-158.0295375245
 10
702.4740811649
 20
-157.9491504041
 10
701.2073521814
 20
-157.6607760855
 10
700.1223693613
 20
-157.1858019728
  0
LWPOLYLINE
  5
10C
330
1F
100
AcDbEntity
  8
0
  6
Continuous
 62
     1
370
    25
100
AcDbPolyline
 90
       70
 70
   128
 43
0.0
 10
532.7192706278
 20
-203.3733444128
 10
536.1632520996
 20
-201.5413218872
 10
540.2662938905
 20
-199.7347428519
 10
544.530786346
 20
-198.2429806068
 10
548.9477611722
 20
-197.0691723511
 10
553.5079294026
 20
-196.2157866217
 10
558.2017009325
 20
-195.6846181021
 10
563.0192046878
 20
-195.4767838479
 10
567.9503093831
 20
-195.5927209378
 10
572.9846448288
 20
-196.0321855543
 10
578.1116237394
 20
-196.7942534964
 10
583.3204639986
 20
-197.8773221235
 10
588.6002113345
 20
-199.2791137255
 10
593.9397623567
 20
-200.9966803128
 10
599.3278879063
 20
-203.0264098162
 10
604.7532566719
 20
-205.3640336832
 10
610.2044590187
 20
-208.0046358545
 10
615.6700309835
 20
-210.9426631026
 10
621.1384783838
 20
-214.1719367108
 10
626.5983009897
 20
-217.6856654665
 10
632.0380167097
 20
-221.4764599436
 10
637.4461857371
 20
-225.5363480426
 10
642.8114346087
 20
-229.8567917557
 10
648.1224801227
 20
-234.4287051228
 10
653.368153068
 20
-239.2424733391
 10
658.5374217131
 20
-244.2879729754
 10
663.6194150057
 20
-249.5545932676
 10
668.6034454351
 20
-255.0312584316
 10
673.479031508
 20
-260.7064509556
 10
678.2359197913
 20
-266.5682358215
 10
682.864106475
 20
-272.604285605
 10
687.3538584107
 20
-278.8019063995
 10
691.6957335804
 20
-285.1480645125
 10
695.8806009534
 20
-291.6294138749
 10
699.8996596886
 20
-298.2323241084
 10
703.744457643
 20
-304.9429091905
 10
707.406909147
 20
-311.7470566565
 10
710.8793120081
 20
-318.6304572787
 10
714.1543637094
 20
-325.5786351588
 10
717.2251767662
 20
-332.5769781709
 10
720.0852932111
 20
-339.6107686912
 10
722.7286981747
 20
-346.6652145488
 10
725.1498325355
 20
-353.7254801349
 10
727.3436046103
 20
-360.7767176013
 10
729.3054008623
 20
-367.8040980861
 10
731.0310956037
 20
-374.7928428992
 10
732.5170596716
 20
-381.7282546018
 10
733.7601680605
 20
-388.5957479155
 10
734.7578064941
 20
-395.3808803953
 10
735.5078769235
 20
-402.0693828022
 10
736.0088019388
 20
-408.647189112
 10
736.2595280869
 20
-415.1004660959
 10
736.2595280869
 20
-421.4156424123
 10
736.0088019388
 20
-427.5794371474
 10
735.5078769235
 20
-433.5788877452
 10
734.7578064941
 20
-439.401377268
 10
733.7601680605
 20
-445.03466093
 10
732.5170596716
 20
-450.4668918483
 10
731.0310956037
 20
-455.686645957
 10
729.3054008623
 20
-460.6829460321
 10
727.3436046103
 20
-465.4452847771
 10
725.1498325355
 20
-469.9636469196
 10
722.7286981747
 20
-474.2285302741
 10
720.0852932111
 20
-478.2309657247
 10
717.2251767662
 20
-481.9625360874
 10
714.1543637094
 20
-485.4153938119
 10
710.8793120081
 20
-488.5822774849
 10
707.406909147
 20
-491.4565271007
 10
703.744457643
 20
-494.032098068
 10
701.3551232023
 20
-495.4918806711
  0
LWPOLYLINE
  5
10D
330
1F
100
AcDbEntity
  8
0
  6
Continuous
 62
     1
370
    25
100
AcDbPolyline
 90
       70
 70
   128
 43
0.0
 10
550.396844972
 20
-193.1682979643
 10
553.8409216292
 20
-191.3362204894
 10
557.9439634202
 20
-189.5296414541
 10
562.2084558756
 20
-188.037879209
 10
566.6254307019
 20
-186.8640709533
 10
571.1855989322
 20
-186.0106852239
 10
575.8793704622
 20
-185.4795167043
 10
580.6968742174
 20
-185.2716824501
 10
585.6279789127
 20
-185.38761954
 10
590.6623143585
 20
-185.8270841565
 10
595.789293269
 20
-186.5891520986
 10
600.9981335282
 20
-187.6722207258
 10
606.2778808642
 20
-189.0740123277
 10
611.6174318863
 20
-190.791578915
 10
617.005557436
 20
-192.8213084185
 10
622.4309262016
 20
-195.1589322854
 10
627.8821285483
 20
-197.7995344567
 10
633.3477005132
 20
-200.7375617048
 10
638.8161479134
 20
-203.966835313
 10
644.2759705194
 20
-207.4805640687
 10
649.7156862394
 20
-211.2713585458
 10
655.1238552668
 20
-215.3312466448
 10
660.4891041384
 20
-219.6516903579
 10
665.8001496523
 20
-224.223603725
 10
671.0458225977
 20
-229.0373719413
 10
676.2150912427
 20
-234.0828715776
 10
681.2970845354
 20
-239.3494918698
 10
686.2811149648
 20
-244.8261570338
 10
691.1567010377
 20
-250.5013495578
 10
695.9135893209
 20
-256.3631344237
 10
700.5417760046
 20
-262.3991842072
 10
705.0315279403
 20
-268.5968050017
 10
709.3734031101
 20
-274.9429631147
 10
713.5582704831
 20
-281.4243124771
 10
717.5773292182
 20
-288.0272227107
 10
721.4221271727
 20
-294.7378077927
 10
725.0845786766
 20
-301.5419552587
 10
728.5569815378
 20
-308.4253558809
 10
731.8320332391
 20
-315.373533761
 10
734.9028462959
 20
-322.3718767732
 10
737.7629627407
 20
-329.4056672934
 10
740.4063677044
 20
-336.4601131511
 10
742.8275020652
 20
-343.5203787371
 10
745.0212741399
 20
-350.5716162035
 10
746.983070392
 20
-357.5989966883
 10
748.7087651333
 20
-364.5877415014
 10
750.1947292012
 20
-371.523153204
 10
751.4378375901
 20
-378.3906465177
 10
752.4354760238
 20
-385.1757789975
 10
753.1855464532
 20
-391.8642814045
 10
753.6864714685
 20
-398.4420877143
 10
753.9371976166
 20
-404.8953646982
 10
753.9371976166
 20
-411.2105410145
 10
753.6864714685
 20
-417.3743357496
 10
753.1855464532
 20
-423.3737863474
 10
752.4354760238
 20
-429.1962758702
 10
751.4378375901
 20
-434.8295595323
 10
750.1947292012
 20
-440.2617904505
 10
748.7087651333
 20
-445.4815445592
 10
746.983070392
 20
-450.4778446343
 10
745.0212741399
 20
-455.2401833793
 10
742.8275020652
 20
-459.7585455219
 10
740.4063677044
 20
-464.0234288764
 10
737.7629627407
 20
-468.0258643269
 10
734.9028462959
 20
-471.7574346896
 10
731.8320332391
 20
-475.2102924141
 10
728.5569815378
 20
-478.3771760871
 10
725.0845786766
 20
-481.251425703
 10
721.4221271727
 20
-483.8269966702
 10
719.0331392311
 20
-485.2865792453
  0
ENDSEC
  0
SECTION
  2
OBJECTS
  0
DICTIONARY
  5
C
330
0
100
AcDbDictionary
281
     1
  3
ACAD_GROUP
350
D
  3
ACAD_LAYOUT
350
1A
  3
ACAD_MLINESTYLE
350
17
  3
ACAD_PLOTSETTINGS
350
19
  3
ACAD_PLOTSTYLENAME
350
E
  3
ACAD_SCALELIST
350
47
  3
DWGPROPS
350
10E
  0
DICTIONARY
  5
D
102
{ACAD_REACTORS
330
C
102
}
330
C
100
AcDbDictionary
281
     1
  0
DICTIONARY
  5
1A
102
{ACAD_REACTORS
330
C
102
}
330
C
100
AcDbDictionary
281
     1
  3
Layout1
350
1E
  3
Layout2
350
26
  3
Model
350
22
  0
DICTIONARY
  5
17
102
{ACAD_REACTORS
330
C
102
}
330
C
100
AcDbDictionary
281
     1
  3
Standard
350
18
  0
DICTIONARY
  5
19
102
{ACAD_REACTORS
330
C
102
}
330
C
100
AcDbDictionary
281
     1
  0
ACDBDICTIONARYWDFLT
  5
E
102
{ACAD_REACTORS
330
C
102
}
330
C
100
AcDbDictionary
281
     1
  3
Normal
350
F
100
AcDbDictionaryWithDefault
340
F
  0
DICTIONARY
  5
47
102
{ACAD_REACTORS
330
C
102
}
330
C
100
AcDbDictionary
281
     1
  3
A0
350
48
  3
A1
350
49
  3
A2
350
4A
  3
A3
350
4B
  3
A4
350
4C
  3
A5
350
4D
  3
A6
350
4E
  3
A7
350
4F
  3
A8
350
50
  3
A9
350
51
  3
B0
350
52
  3
B1
350
53
  3
B2
350
54
  3
B3
350
55
  3
B4
350
56
  3
B5
350
57
  3
B6
350
58
  3
B7
350
59
  3
B8
350
5A
  3
B9
350
5B
  3
C0
350
5C
  3
C1
350
5D
  3
C2
350
5E
  3
C3
350
5F
  3
C4
350
60
  3
C5
350
61
  3
C6
350
62
  3
C7
350
63
  3
C8
350
64
  3
C9
350
65
  3
D0
350
66
  3
D1
350
67
  3
D2
350
68
  0
XRECORD
  5
10E
102
{ACAD_REACTORS
330
C
102
}
330
C
100
AcDbXrecord
280
     1
  1
DWGPROPS COOKIE
  2

  3

  4

  6

  7

  8
b.kav
  9

300
=
301
=
302
=
303
=
304
=
305
=
306
=
307
=
308
=
309
=
 40
0.0
 41
2459935.585404826
 42
2459935.585405
  1

 90
        0
  0
LAYOUT
  5
1E
102
{ACAD_REACTORS
330
1A
102
}
330
1A
100
AcDbPlotSettings
  1

  2
none_device
  4

  6

 40
0.0
 41
0.0
 42
0.0
 43
0.0
 44
0.0
 45
0.0
 46
0.0
 47
0.0
 48
0.0
 49
0.0
140
0.0
141
0.0
142
1.0
143
1.0
 70
   688
 72
     1
 73
     0
 74
     5
  7

 75
    16
147
1.0
148
0.0
149
0.0
100
AcDbLayout
  1
Layout1
 70
     1
 71
     1
 10
0.0
 20
0.0
 11
420.0
 21
297.0
 12
0.0
 22
0.0
 32
0.0
 14
1.0000000000E+20
 24
1.0000000000E+20
 34
1.0000000000E+20
 15
-1.0000000000E+20
 25
-1.0000000000E+20
 35
-1.0000000000E+20
146
0.0
 13
0.0
 23
0.0
 33
0.0
 16
1.0
 26
0.0
 36
0.0
 17
0.0
 27
1.0
 37
0.0
 76
     0
330
1B
  0
LAYOUT
  5
26
102
{ACAD_REACTORS
330
1A
102
}
330
1A
100
AcDbPlotSettings
  1

  2
none_device
  4

  6

 40
0.0
 41
0.0
 42
0.0
 43
0.0
 44
0.0
 45
0.0
 46
0.0
 47
0.0
 48
0.0
 49
0.0
140
0.0
141
0.0
142
1.0
143
1.0
 70
   688
 72
     1
 73
     0
 74
     5
  7

 75
    16
147
1.0
148
0.0
149
0.0
100
AcDbLayout
  1
Layout2
 70
     1
 71
     2
 10
0.0
 20
0.0
 11
0.0
 21
0.0
 12
0.0
 22
0.0
 32
0.0
 14
0.0
 24
0.0
 34
0.0
 15
0.0
 25
0.0
 35
0.0
146
0.0
 13
0.0
 23
0.0
 33
0.0
 16
1.0
 26
0.0
 36
0.0
 17
0.0
 27
1.0
 37
0.0
 76
     0
330
23
  0
LAYOUT
  5
22
102
{ACAD_REACTORS
330
1A
102
}
330
1A
100
AcDbPlotSettings
  1

  2
none_device
  4
Letter_(8.50_x_11.00_Inches)
  6

 40
6.35
 41
6.35
 42
6.35000508
 43
6.35000508
 44
215.9
 45
279.4
 46
0.0
 47
0.0
 48
0.0
 49
0.0
140
0.0
141
0.0
142
1.0
143
1.0
 70
  1712
 72
     1
 73
     0
 74
     0
  7

 75
     0
147
1.0
148
0.0
149
0.0
100
AcDbLayout
  1
Model
 70
     1
 71
     0
 10
0.0
 20
0.0
 11
279.4
 21
215.9
 12
0.0
 22
0.0
 32
0.0
 14
0.0
 24
0.0
 34
0.0
 15
279.4
 25
215.9
 35
0.0
146
0.0
 13
0.0
 23
0.0
 33
0.0
 16
1.0
 26
0.0
 36
0.0
 17
0.0
 27
1.0
 37
0.0
 76
     0
330
1F
331
29
  0
MLINESTYLE
  5
18
102
{ACAD_REACTORS
330
17
102
}
330
17
100
AcDbMlineStyle
  2
Standard
 70
     0
  3

 62
   256
 51
90.0
 52
90.0
 71
     2
 49
0.5
 62
   256
  6
BYLAYER
 49
-0.5
 62
   256
  6
BYLAYER
  0
ACDBPLACEHOLDER
  5
F
102
{ACAD_REACTORS
330
E
102
}
330
E
  0
SCALE
  5
48
102
{ACAD_REACTORS
330
47
102
}
330
47
100
AcDbScale
 70
     0
300
1:1
140
1.0
141
1.0
290
     1
  0
SCALE
  5
49
102
{ACAD_REACTORS
330
47
102
}
330
47
100
AcDbScale
 70
     0
300
1:2
140
1.0
141
2.0
290
     0
  0
SCALE
  5
4A
102
{ACAD_REACTORS
330
47
102
}
330
47
100
AcDbScale
 70
     0
300
1:4
140
1.0
141
4.0
290
     0
  0
SCALE
  5
4B
102
{ACAD_REACTORS
330
47
102
}
330
47
100
AcDbScale
 70
     0
300
1:5
140
1.0
141
5.0
290
     0
  0
SCALE
  5
4C
102
{ACAD_REACTORS
330
47
102
}
330
47
100
AcDbScale
 70
     0
300
1:8
140
1.0
141
8.0
290
     0
  0
SCALE
  5
4D
102
{ACAD_REACTORS
330
47
102
}
330
47
100
AcDbScale
 70
     0
300
1:10
140
1.0
141
10.0
290
     0
  0
SCALE
  5
4E
102
{ACAD_REACTORS
330
47
102
}
330
47
100
AcDbScale
 70
     0
300
1:16
140
1.0
141
16.0
290
     0
  0
SCALE
  5
4F
102
{ACAD_REACTORS
330
47
102
}
330
47
100
AcDbScale
 70
     0
300
1:20
140
1.0
141
20.0
290
     0
  0
SCALE
  5
50
102
{ACAD_REACTORS
330
47
102
}
330
47
100
AcDbScale
 70
     0
300
1:30
140
1.0
141
30.0
290
     0
  0
SCALE
  5
51
102
{ACAD_REACTORS
330
47
102
}
330
47
100
AcDbScale
 70
     0
300
1:40
140
1.0
141
40.0
290
     0
  0
SCALE
  5
52
102
{ACAD_REACTORS
330
47
102
}
330
47
100
AcDbScale
 70
     0
300
1:50
140
1.0
141
50.0
290
     0
  0
SCALE
  5
53
102
{ACAD_REACTORS
330
47
102
}
330
47
100
AcDbScale
 70
     0
300
1:100
140
1.0
141
100.0
290
     0
  0
SCALE
  5
54
102
{ACAD_REACTORS
330
47
102
}
330
47
100
AcDbScale
 70
     0
300
2:1
140
2.0
141
1.0
290
     0
  0
SCALE
  5
55
102
{ACAD_REACTORS
330
47
102
}
330
47
100
AcDbScale
 70
     0
300
4:1
140
4.0
141
1.0
290
     0
  0
SCALE
  5
56
102
{ACAD_REACTORS
330
47
102
}
330
47
100
AcDbScale
 70
     0
300
8:1
140
8.0
141
1.0
290
     0
  0
SCALE
  5
57
102
{ACAD_REACTORS
330
47
102
}
330
47
100
AcDbScale
 70
     0
300
10:1
140
10.0
141
1.0
290
     0
  0
SCALE
  5
58
102
{ACAD_REACTORS
330
47
102
}
330
47
100
AcDbScale
 70
     0
300
100:1
140
100.0
141
1.0
290
     0
  0
SCALE
  5
59
102
{ACAD_REACTORS
330
47
102
}
330
47
100
AcDbScale
 70
     0
300
1/128" = 1'-0"
140
0.0078125
141
12.0
290
     0
  0
SCALE
  5
5A
102
{ACAD_REACTORS
330
47
102
}
330
47
100
AcDbScale
 70
     0
300
1/64" = 1'-0"
140
0.015625
141
12.0
290
     0
  0
SCALE
  5
5B
102
{ACAD_REACTORS
330
47
102
}
330
47
100
AcDbScale
 70
     0
300
1/32" = 1'-0"
140
0.03125
141
12.0
290
     0
  0
SCALE
  5
5C
102
{ACAD_REACTORS
330
47
102
}
330
47
100
AcDbScale
 70
     0
300
1/16" = 1'-0"
140
0.0625
141
12.0
290
     0
  0
SCALE
  5
5D
102
{ACAD_REACTORS
330
47
102
}
330
47
100
AcDbScale
 70
     0
300
3/32" = 1'-0"
140
0.09375
141
12.0
290
     0
  0
SCALE
  5
5E
102
{ACAD_REACTORS
330
47
102
}
330
47
100
AcDbScale
 70
     0
300
1/8" = 1'-0"
140
0.125
141
12.0
290
     0
  0
SCALE
  5
5F
102
{ACAD_REACTORS
330
47
102
}
330
47
100
AcDbScale
 70
     0
300
3/16" = 1'-0"
140
0.1875
141
12.0
290
     0
  0
SCALE
  5
60
102
{ACAD_REACTORS
330
47
102
}
330
47
100
AcDbScale
 70
     0
300
1/4" = 1'-0"
140
0.25
141
12.0
290
     0
  0
SCALE
  5
61
102
{ACAD_REACTORS
330
47
102
}
330
47
100
AcDbScale
 70
     0
300
3/8" = 1'-0"
140
0.375
141
12.0
290
     0
  0
SCALE
  5
62
102
{ACAD_REACTORS
330
47
102
}
330
47
100
AcDbScale
 70
     0
300
1/2" = 1'-0"
140
0.5
141
12.0
290
     0
  0
SCALE
  5
63
102
{ACAD_REACTORS
330
47
102
}
330
47
100
AcDbScale
 70
     0
300
3/4" = 1'-0"
140
0.75
141
12.0
290
     0
  0
SCALE
  5
64
102
{ACAD_REACTORS
330
47
102
}
330
47
100
AcDbScale
 70
     0
300
1" = 1'-0"
140
1.0
141
12.0
290
     0
  0
SCALE
  5
65
102
{ACAD_REACTORS
330
47
102
}
330
47
100
AcDbScale
 70
     0
300
1-1/2" = 1'-0"
140
1.5
141
12.0
290
     0
  0
SCALE
  5
66
102
{ACAD_REACTORS
330
47
102
}
330
47
100
AcDbScale
 70
     0
300
3" = 1'-0"
140
3.0
141
12.0
290
     0
  0
SCALE
  5
67
102
{ACAD_REACTORS
330
47
102
}
330
47
100
AcDbScale
 70
     0
300
6" = 1'-0"
140
6.0
141
12.0
290
     0
  0
SCALE
  5
68
102
{ACAD_REACTORS
330
47
102
}
330
47
100
AcDbScale
 70
     0
300
1'-0" = 1'-0"
140
12.0
141
12.0
290
     0
  0
ENDSEC
  0
EOF
